  0
SECTION
  2
HEADER
  9
$ACADVER
  1
AC1015
  9
$ACADMAINTVER
 70
    18
  9
$DWGCODEPAGE
  3
ANSI_1252
  9
$INSBASE
 10
0.0
 20
0.0
 30
0.0
  9
$EXTMIN
 10
-4.999999999999999
 20
-4.999999999999999
 30
-0.00000001
  9
$EXTMAX
 10
510.0000000000003
 20
355.0
 30
0.00000001
  9
$LIMMIN
 10
1.052433159589827
 20
-9.396100722886629
  9
$LIMMAX
 10
21.86095266718183
 20
20.02602198272915
  9
$ORTHOMODE
 70
     0
  9
$REGENMODE
 70
     1
  9
$FILLMODE
 70
     1
  9
$QTEXTMODE
 70
     0
  9
$MIRRTEXT
 70
     0
  9
$LTSCALE
 40
1.0
  9
$ATTMODE
 70
     1
  9
$TEXTSIZE
 40
62.90362608099155
  9
$TRACEWID
 40
0.05
  9
$TEXTSTYLE
  7
Standard
  9
$CLAYER
  8
0
  9
$CELTYPE
  6
ByLayer
  9
$CECOLOR
 62
   256
  9
$CELTSCALE
 40
1.0
  9
$DISPSILH
 70
     0
  9
$DIMSCALE
 40
1.0
  9
$DIMASZ
 40
0.18
  9
$DIMEXO
 40
0.0625
  9
$DIMDLI
 40
0.38
  9
$DIMRND
 40
0.0
  9
$DIMDLE
 40
0.0
  9
$DIMEXE
 40
0.18
  9
$DIMTP
 40
0.0
  9
$DIMTM
 40
0.0
  9
$DIMTXT
 40
0.3962433138960097
  9
$DIMCEN
 40
0.09
  9
$DIMTSZ
 40
0.0
  9
$DIMTOL
 70
     0
  9
$DIMLIM
 70
     0
  9
$DIMTIH
 70
     1
  9
$DIMTOH
 70
     1
  9
$DIMSE1
 70
     0
  9
$DIMSE2
 70
     0
  9
$DIMTAD
 70
     0
  9
$DIMZIN
 70
     0
  9
$DIMBLK
  1

  9
$DIMASO
 70
     1
  9
$DIMSHO
 70
     1
  9
$DIMPOST
  1

  9
$DIMAPOST
  1

  9
$DIMALT
 70
     0
  9
$DIMALTD
 70
     2
  9
$DIMALTF
 40
25.4
  9
$DIMLFAC
 40
1.0
  9
$DIMTOFL
 70
     0
  9
$DIMTVP
 40
0.0
  9
$DIMTIX
 70
     0
  9
$DIMSOXD
 70
     0
  9
$DIMSAH
 70
     0
  9
$DIMBLK1
  1

  9
$DIMBLK2
  1

  9
$DIMSTYLE
  2
Standard
  9
$DIMCLRD
 70
     0
  9
$DIMCLRE
 70
     0
  9
$DIMCLRT
 70
     0
  9
$DIMTFAC
 40
1.0
  9
$DIMGAP
 40
0.09
  9
$DIMJUST
 70
     0
  9
$DIMSD1
 70
     0
  9
$DIMSD2
 70
     0
  9
$DIMTOLJ
 70
     1
  9
$DIMTZIN
 70
     0
  9
$DIMALTZ
 70
     0
  9
$DIMALTTZ
 70
     0
  9
$DIMUPT
 70
     0
  9
$DIMDEC
 70
     4
  9
$DIMTDEC
 70
     4
  9
$DIMALTU
 70
     2
  9
$DIMALTTD
 70
     2
  9
$DIMTXSTY
  7
Standard
  9
$DIMAUNIT
 70
     1
  9
$DIMADEC
 70
     0
  9
$DIMALTRND
 40
0.0
  9
$DIMAZIN
 70
     0
  9
$DIMDSEP
 70
    46
  9
$DIMATFIT
 70
     3
  9
$DIMFRAC
 70
     0
  9
$DIMLDRBLK
  1

  9
$DIMLUNIT
 70
     4
  9
$DIMLWD
 70
    -2
  9
$DIMLWE
 70
    -2
  9
$DIMTMOVE
 70
     0
  9
$LUNITS
 70
     2
  9
$LUPREC
 70
     4
  9
$SKETCHINC
 40
0.1
  9
$FILLETRAD
 40
254.0
  9
$AUNITS
 70
     0
  9
$AUPREC
 70
     0
  9
$MENU
  1
.
  9
$ELEVATION
 40
0.0
  9
$PELEVATION
 40
0.0
  9
$THICKNESS
 40
0.0
  9
$LIMCHECK
 70
     0
  9
$CHAMFERA
 40
4.999999999999999
  9
$CHAMFERB
 40
4.999999999999999
  9
$CHAMFERC
 40
0.0
  9
$CHAMFERD
 40
0.0
  9
$SKPOLY
 70
     0
  9
$TDCREATE
 40
2457495.662162535
  9
$TDUCREATE
 40
2457495.578829202
  9
$TDUPDATE
 40
2457495.662162535
  9
$TDUUPDATE
 40
2457495.578829202
  9
$TDINDWG
 40
0.0000003704
  9
$TDUSRTIMER
 40
0.0000003704
  9
$USRTIMER
 70
     1
  9
$ANGBASE
 50
0.0
  9
$ANGDIR
 70
     0
  9
$PDMODE
 70
     0
  9
$PDSIZE
 40
0.0
  9
$PLINEWID
 40
0.0
  9
$SPLFRAME
 70
     0
  9
$SPLINETYPE
 70
     6
  9
$SPLINESEGS
 70
     8
  9
$HANDSEED
  5
273
  9
$SURFTAB1
 70
     6
  9
$SURFTAB2
 70
     6
  9
$SURFTYPE
 70
     6
  9
$SURFU
 70
     6
  9
$SURFV
 70
     6
  9
$UCSBASE
  2

  9
$UCSNAME
  2

  9
$UCSORG
 10
0.0
 20
0.0
 30
0.0
  9
$UCSXDIR
 10
1.0
 20
0.0
 30
0.0
  9
$UCSYDIR
 10
0.0
 20
1.0
 30
0.0
  9
$UCSORTHOREF
  2

  9
$UCSORTHOVIEW
 70
     0
  9
$UCSORGTOP
 10
0.0
 20
0.0
 30
0.0
  9
$UCSORGBOTTOM
 10
0.0
 20
0.0
 30
0.0
  9
$UCSORGLEFT
 10
0.0
 20
0.0
 30
0.0
  9
$UCSORGRIGHT
 10
0.0
 20
0.0
 30
0.0
  9
$UCSORGFRONT
 10
0.0
 20
0.0
 30
0.0
  9
$UCSORGBACK
 10
0.0
 20
0.0
 30
0.0
  9
$PUCSBASE
  2

  9
$PUCSNAME
  2

  9
$PUCSORG
 10
0.0
 20
0.0
 30
0.0
  9
$PUCSXDIR
 10
1.0
 20
0.0
 30
0.0
  9
$PUCSYDIR
 10
0.0
 20
1.0
 30
0.0
  9
$PUCSORTHOREF
  2

  9
$PUCSORTHOVIEW
 70
     0
  9
$PUCSORGTOP
 10
0.0
 20
0.0
 30
0.0
  9
$PUCSORGBOTTOM
 10
0.0
 20
0.0
 30
0.0
  9
$PUCSORGLEFT
 10
0.0
 20
0.0
 30
0.0
  9
$PUCSORGRIGHT
 10
0.0
 20
0.0
 30
0.0
  9
$PUCSORGFRONT
 10
0.0
 20
0.0
 30
0.0
  9
$PUCSORGBACK
 10
0.0
 20
0.0
 30
0.0
  9
$USERI1
 70
     0
  9
$USERI2
 70
     0
  9
$USERI3
 70
     0
  9
$USERI4
 70
     0
  9
$USERI5
 70
     0
  9
$USERR1
 40
0.0
  9
$USERR2
 40
0.0
  9
$USERR3
 40
0.0
  9
$USERR4
 40
0.0
  9
$USERR5
 40
0.0
  9
$WORLDVIEW
 70
     1
  9
$SHADEDGE
 70
     3
  9
$SHADEDIF
 70
    70
  9
$TILEMODE
 70
     1
  9
$MAXACTVP
 70
    64
  9
$PINSBASE
 10
0.0
 20
0.0
 30
0.0
  9
$PLIMCHECK
 70
     0
  9
$PEXTMIN
 10
1.000000000000000E+20
 20
1.000000000000000E+20
 30
1.000000000000000E+20
  9
$PEXTMAX
 10
-1.000000000000000E+20
 20
-1.000000000000000E+20
 30
-1.000000000000000E+20
  9
$PLIMMIN
 10
0.0
 20
0.0
  9
$PLIMMAX
 10
12.0
 20
9.0
  9
$UNITMODE
 70
     0
  9
$VISRETAIN
 70
     1
  9
$PLINEGEN
 70
     0
  9
$PSLTSCALE
 70
     1
  9
$TREEDEPTH
 70
  3020
  9
$CMLSTYLE
  2
Standard
  9
$CMLJUST
 70
     0
  9
$CMLSCALE
 40
1.0
  9
$PROXYGRAPHICS
 70
     1
  9
$MEASUREMENT
 70
     1
  9
$CELWEIGHT
370
    -1
  9
$ENDCAPS
280
     0
  9
$JOINSTYLE
280
     0
  9
$LWDISPLAY
290
     0
  9
$INSUNITS
 70
     0
  9
$HYPERLINKBASE
  1

  9
$STYLESHEET
  1

  9
$XEDIT
290
     1
  9
$CEPSNTYPE
380
     0
  9
$PSTYLEMODE
290
     1
  9
$FINGERPRINTGUID
  2
{26ED0093-4F24-4DAA-B674-66C7AD4335CD}
  9
$VERSIONGUID
  2
{5794F4E1-CF1F-4227-950E-C4977F6277C4}
  9
$EXTNAMES
290
     1
  9
$PSVPSCALE
 40
0.0
  9
$OLESTARTUP
290
     0
  0
ENDSEC
  0
SECTION
  2
CLASSES
  0
CLASS
  1
ACDBDICTIONARYWDFLT
  2
AcDbDictionaryWithDefault
  3
ObjectDBX Classes
 90
        0
280
     0
281
     0
  0
CLASS
  1
MATERIAL
  2
AcDbMaterial
  3
ObjectDBX Classes
 90
     1153
280
     0
281
     0
  0
CLASS
  1
VISUALSTYLE
  2
AcDbVisualStyle
  3
ObjectDBX Classes
 90
     4095
280
     0
281
     0
  0
CLASS
  1
SCALE
  2
AcDbScale
  3
ObjectDBX Classes
 90
     1153
280
     0
281
     0
  0
CLASS
  1
TABLESTYLE
  2
AcDbTableStyle
  3
ObjectDBX Classes
 90
     4095
280
     0
281
     0
  0
CLASS
  1
MLEADERSTYLE
  2
AcDbMLeaderStyle
  3
ACDB_MLEADERSTYLE_CLASS
 90
     4095
280
     0
281
     0
  0
CLASS
  1
DICTIONARYVAR
  2
AcDbDictionaryVar
  3
ObjectDBX Classes
 90
        0
280
     0
281
     0
  0
CLASS
  1
CELLSTYLEMAP
  2
AcDbCellStyleMap
  3
ObjectDBX Classes
 90
     1152
280
     0
281
     0
  0
CLASS
  1
ACDBPLACEHOLDER
  2
AcDbPlaceHolder
  3
ObjectDBX Classes
 90
        0
280
     0
281
     0
  0
CLASS
  1
LAYOUT
  2
AcDbLayout
  3
ObjectDBX Classes
 90
        0
280
     0
281
     0
  0
ENDSEC
  0
SECTION
  2
TABLES
  0
TABLE
  2
VPORT
  5
8
330
0
100
AcDbSymbolTable
 70
     1
  0
VPORT
  5
5F
330
8
100
AcDbSymbolTableRecord
100
AcDbViewportTableRecord
  2
*Active
 70
     0
 10
0.0
 20
0.0
 11
1.0
 21
1.0
 12
250.0000000000002
 22
168.1038992771133
 13
0.0
 23
0.0
 14
1.0
 24
1.0
 15
0.0
 25
0.0
 16
0.0
 26
0.0
 36
1.0
 17
0.0
 27
0.0
 37
0.0
 40
355.0
 41
1.43661971830986
 42
50.0
 43
0.0
 44
0.0
 50
0.0
 51
0.0
 71
     0
 72
   100
 73
     1
 74
     1
 75
     0
 76
     0
 77
     0
 78
     0
281
     0
 65
     1
110
0.0
120
0.0
130
0.0
111
1.0
121
0.0
131
0.0
112
0.0
122
1.0
132
0.0
 79
     0
146
0.0
  0
ENDTAB
  0
TABLE
  2
LTYPE
  5
5
330
0
100
AcDbSymbolTable
 70
    40
  0
LTYPE
  5
63
330
5
100
AcDbSymbolTableRecord
100
AcDbLinetypeTableRecord
  2
ByBlock
 70
     0
  3

 72
    65
 73
     0
 40
0.0
  0
LTYPE
  5
64
330
5
100
AcDbSymbolTableRecord
100
AcDbLinetypeTableRecord
  2
ByLayer
 70
     0
  3

 72
    65
 73
     0
 40
0.0
  0
LTYPE
  5
65
330
5
100
AcDbSymbolTableRecord
100
AcDbLinetypeTableRecord
  2
Continuous
 70
     0
  3
Solid line
 72
    65
 73
     0
 40
0.0
  0
LTYPE
  5
7D
330
5
100
AcDbSymbolTableRecord
100
AcDbLinetypeTableRecord
  2
HIDDEN
 70
     0
  3
_ _ _ _ _ _ _ _ _ _ _ _ _ _ 
 72
    65
 73
     2
 40
9.524999999999998
 49
6.349999999999999
 74
     0
 49
-3.174999999999999
 74
     0
  0
LTYPE
  5
7E
330
5
100
AcDbSymbolTableRecord
100
AcDbLinetypeTableRecord
  2
DASHED
 70
     0
  3
__ __ __ __ __ __ __ __ __ 
 72
    65
 73
     2
 40
19.05
 49
12.7
 74
     0
 49
-6.349999999999999
 74
     0
  0
LTYPE
  5
7F
330
5
100
AcDbSymbolTableRecord
100
AcDbLinetypeTableRecord
  2
CENTER
 70
     0
  3
____ _ ____ _ ____ _ ____ _ 
 72
    65
 73
     4
 40
50.8
 49
31.75
 74
     0
 49
-6.349999999999999
 74
     0
 49
6.349999999999999
 74
     0
 49
-6.349999999999999
 74
     0
  0
LTYPE
  5
80
330
5
100
AcDbSymbolTableRecord
100
AcDbLinetypeTableRecord
  2
PHANTOM
 70
     0
  3
_____ _ _ _____ _ _ _____ _ _ 
 72
    65
 73
     6
 40
63.50000000000001
 49
31.75
 74
     0
 49
-6.349999999999999
 74
     0
 49
6.349999999999999
 74
     0
 49
-6.349999999999999
 74
     0
 49
6.349999999999999
 74
     0
 49
-6.349999999999999
 74
     0
  0
LTYPE
  5
81
330
5
100
AcDbSymbolTableRecord
100
AcDbLinetypeTableRecord
  2
DOT
 70
     0
  3
...........................
 72
    65
 73
     2
 40
6.349999999999999
 49
0.0
 74
     0
 49
-6.349999999999999
 74
     0
  0
LTYPE
  5
82
330
5
100
AcDbSymbolTableRecord
100
AcDbLinetypeTableRecord
  2
DASHDOT
 70
     0
  3
__ . __ . __ . __ . __ . __ . 
 72
    65
 73
     4
 40
25.4
 49
12.7
 74
     0
 49
-6.349999999999999
 74
     0
 49
0.0
 74
     0
 49
-6.349999999999999
 74
     0
  0
LTYPE
  5
83
330
5
100
AcDbSymbolTableRecord
100
AcDbLinetypeTableRecord
  2
DIVIDE
 70
     0
  3
__ . . __ . . __ . . __ . . 
 72
    65
 73
     6
 40
31.75
 49
12.7
 74
     0
 49
-6.349999999999999
 74
     0
 49
0.0
 74
     0
 49
-6.349999999999999
 74
     0
 49
0.0
 74
     0
 49
-6.349999999999999
 74
     0
  0
LTYPE
  5
84
330
5
100
AcDbSymbolTableRecord
100
AcDbLinetypeTableRecord
  2
BORDER
 70
     0
  3
__ __ . __ __ . __ __ . __ __ .
 72
    65
 73
     6
 40
44.44999999999999
 49
12.7
 74
     0
 49
-6.349999999999999
 74
     0
 49
12.7
 74
     0
 49
-6.349999999999999
 74
     0
 49
0.0
 74
     0
 49
-6.349999999999999
 74
     0
  0
LTYPE
  5
85
330
5
100
AcDbSymbolTableRecord
100
AcDbLinetypeTableRecord
  2
BORDER2
 70
     0
  3
Border (.5x) __.__.__.__.__.__.
 72
    65
 73
     6
 40
0.875
 49
0.25
 74
     0
 49
-0.125
 74
     0
 49
0.25
 74
     0
 49
-0.125
 74
     0
 49
0.0
 74
     0
 49
-0.125
 74
     0
  0
LTYPE
  5
86
330
5
100
AcDbSymbolTableRecord
100
AcDbLinetypeTableRecord
  2
BORDERX2
 70
     0
  3
Border (2x) ____  ____  .  ____
 72
    65
 73
     6
 40
3.5
 49
1.0
 74
     0
 49
-0.5
 74
     0
 49
1.0
 74
     0
 49
-0.5
 74
     0
 49
0.0
 74
     0
 49
-0.5
 74
     0
  0
LTYPE
  5
87
330
5
100
AcDbSymbolTableRecord
100
AcDbLinetypeTableRecord
  2
CENTER2
 70
     0
  3
Center (.5x) ___ _ ___ _ ___ _ 
 72
    65
 73
     4
 40
1.125
 49
0.7500000000000001
 74
     0
 49
-0.125
 74
     0
 49
0.125
 74
     0
 49
-0.125
 74
     0
  0
LTYPE
  5
88
330
5
100
AcDbSymbolTableRecord
100
AcDbLinetypeTableRecord
  2
CENTERX2
 70
     0
  3
Center (2x) ________  __  _____
 72
    65
 73
     4
 40
4.0
 49
2.5
 74
     0
 49
-0.5
 74
     0
 49
0.5
 74
     0
 49
-0.5
 74
     0
  0
LTYPE
  5
89
330
5
100
AcDbSymbolTableRecord
100
AcDbLinetypeTableRecord
  2
DASHDOT2
 70
     0
  3
Dash dot (.5x) _._._._._._._._.
 72
    65
 73
     4
 40
0.5
 49
0.25
 74
     0
 49
-0.125
 74
     0
 49
0.0
 74
     0
 49
-0.125
 74
     0
  0
LTYPE
  5
8A
330
5
100
AcDbSymbolTableRecord
100
AcDbLinetypeTableRecord
  2
DASHDOTX2
 70
     0
  3
Dash dot (2x) ____  .  ____  . 
 72
    65
 73
     4
 40
2.0
 49
1.0
 74
     0
 49
-0.5
 74
     0
 49
0.0
 74
     0
 49
-0.5
 74
     0
  0
LTYPE
  5
8B
330
5
100
AcDbSymbolTableRecord
100
AcDbLinetypeTableRecord
  2
DASHED2
 70
     0
  3
Dashed (.5x) _ _ _ _ _ _ _ _ _ 
 72
    65
 73
     2
 40
0.375
 49
0.25
 74
     0
 49
-0.125
 74
     0
  0
LTYPE
  5
8C
330
5
100
AcDbSymbolTableRecord
100
AcDbLinetypeTableRecord
  2
DASHEDX2
 70
     0
  3
Dashed (2x) ____  ____  ____  _
 72
    65
 73
     2
 40
1.5
 49
1.0
 74
     0
 49
-0.5
 74
     0
  0
LTYPE
  5
8D
330
5
100
AcDbSymbolTableRecord
100
AcDbLinetypeTableRecord
  2
DIVIDE2
 70
     0
  3
Divide (.5x) __..__..__..__..__
 72
    65
 73
     6
 40
0.625
 49
0.25
 74
     0
 49
-0.125
 74
     0
 49
0.0
 74
     0
 49
-0.125
 74
     0
 49
0.0
 74
     0
 49
-0.125
 74
     0
  0
LTYPE
  5
8E
330
5
100
AcDbSymbolTableRecord
100
AcDbLinetypeTableRecord
  2
DIVIDEX2
 70
     0
  3
Divide (2x) ________  .  .  ___
 72
    65
 73
     6
 40
2.5
 49
1.0
 74
     0
 49
-0.5
 74
     0
 49
0.0
 74
     0
 49
-0.5
 74
     0
 49
0.0
 74
     0
 49
-0.5
 74
     0
  0
LTYPE
  5
8F
330
5
100
AcDbSymbolTableRecord
100
AcDbLinetypeTableRecord
  2
DOT2
 70
     0
  3
Dot (.5x) .....................
 72
    65
 73
     2
 40
0.125
 49
0.0
 74
     0
 49
-0.125
 74
     0
  0
LTYPE
  5
90
330
5
100
AcDbSymbolTableRecord
100
AcDbLinetypeTableRecord
  2
DOTX2
 70
     0
  3
Dot (2x) .  .  .  .  .  .  .  .
 72
    65
 73
     2
 40
0.5
 49
0.0
 74
     0
 49
-0.5
 74
     0
  0
LTYPE
  5
91
330
5
100
AcDbSymbolTableRecord
100
AcDbLinetypeTableRecord
  2
HIDDEN2
 70
     0
  3
Hidden (.5x) _ _ _ _ _ _ _ _ _ 
 72
    65
 73
     2
 40
0.1875
 49
0.125
 74
     0
 49
-0.0625
 74
     0
  0
LTYPE
  5
92
330
5
100
AcDbSymbolTableRecord
100
AcDbLinetypeTableRecord
  2
HIDDENX2
 70
     0
  3
Hidden (2x) ____ ____ ____ ____
 72
    65
 73
     2
 40
0.75
 49
0.5
 74
     0
 49
-0.25
 74
     0
  0
LTYPE
  5
93
330
5
100
AcDbSymbolTableRecord
100
AcDbLinetypeTableRecord
  2
PHANTOM2
 70
     0
  3
Phantom (.5x) ___ _ _ ___ _ _ _
 72
    65
 73
     6
 40
1.25
 49
0.6250000000000001
 74
     0
 49
-0.125
 74
     0
 49
0.125
 74
     0
 49
-0.125
 74
     0
 49
0.125
 74
     0
 49
-0.125
 74
     0
  0
LTYPE
  5
94
330
5
100
AcDbSymbolTableRecord
100
AcDbLinetypeTableRecord
  2
PHANTOMX2
 70
     0
  3
Phantom (2x) ____________    __
 72
    65
 73
     6
 40
5.0
 49
2.5
 74
     0
 49
-0.5
 74
     0
 49
0.5
 74
     0
 49
-0.5
 74
     0
 49
0.5
 74
     0
 49
-0.5
 74
     0
  0
LTYPE
  5
95
330
5
100
AcDbSymbolTableRecord
100
AcDbLinetypeTableRecord
  2
DOTS
 70
     0
  3
Dots - - - - - - - - - - - - - 
 72
    65
 73
     2
 40
0.1
 49
0.05
 74
     0
 49
-0.05
 74
     0
  0
LTYPE
  5
96
330
5
100
AcDbSymbolTableRecord
100
AcDbLinetypeTableRecord
  2
ACAD_ISO02W100
 70
     0
  3
__ __ __ __ __ __ __ __ __ __ _
 72
    65
 73
     2
 40
15.0
 49
12.0
 74
     0
 49
-3.0
 74
     0
  0
LTYPE
  5
97
330
5
100
AcDbSymbolTableRecord
100
AcDbLinetypeTableRecord
  2
ACAD_ISO03W100
 70
     0
  3
__    __    __    __    __    _
 72
    65
 73
     2
 40
30.0
 49
12.0
 74
     0
 49
-18.0
 74
     0
  0
LTYPE
  5
98
330
5
100
AcDbSymbolTableRecord
100
AcDbLinetypeTableRecord
  2
ACAD_ISO04W100
 70
     0
  3
____ . ____ . ____ . ____ . ___
 72
    65
 73
     4
 40
30.5
 49
24.0
 74
     0
 49
-3.0
 74
     0
 49
0.5
 74
     0
 49
-3.0
 74
     0
  0
LTYPE
  5
99
330
5
100
AcDbSymbolTableRecord
100
AcDbLinetypeTableRecord
  2
ACAD_ISO05W100
 70
     0
  3
____ .. ____ .. ____ .. ____ ..
 72
    65
 73
     6
 40
34.0
 49
24.0
 74
     0
 49
-3.0
 74
     0
 49
0.5
 74
     0
 49
-3.0
 74
     0
 49
0.5
 74
     0
 49
-3.0
 74
     0
  0
LTYPE
  5
9A
330
5
100
AcDbSymbolTableRecord
100
AcDbLinetypeTableRecord
  2
ACAD_ISO06W100
 70
     0
  3
____ ... ____ ... ____ ... ____
 72
    65
 73
     6
 40
34.0
 49
24.0
 74
     0
 49
-3.0
 74
     0
 49
0.5
 74
     0
 49
-3.0
 74
     0
 49
0.5
 74
     0
 49
-3.0
 74
     0
  0
LTYPE
  5
9B
330
5
100
AcDbSymbolTableRecord
100
AcDbLinetypeTableRecord
  2
ACAD_ISO07W100
 70
     0
  3
. . . . . . . . . . . . . . . .
 72
    65
 73
     2
 40
3.5
 49
0.5
 74
     0
 49
-3.0
 74
     0
  0
LTYPE
  5
9C
330
5
100
AcDbSymbolTableRecord
100
AcDbLinetypeTableRecord
  2
ACAD_ISO08W100
 70
     0
  3
____ __ ____ __ ____ __ ____ __
 72
    65
 73
     4
 40
36.0
 49
24.0
 74
     0
 49
-3.0
 74
     0
 49
6.0
 74
     0
 49
-3.0
 74
     0
  0
LTYPE
  5
9D
330
5
100
AcDbSymbolTableRecord
100
AcDbLinetypeTableRecord
  2
ACAD_ISO09W100
 70
     0
  3
____ __ __ ____ __ __ ____ __ _
 72
    65
 73
     6
 40
45.0
 49
24.0
 74
     0
 49
-3.0
 74
     0
 49
6.0
 74
     0
 49
-3.0
 74
     0
 49
6.0
 74
     0
 49
-3.0
 74
     0
  0
LTYPE
  5
9E
330
5
100
AcDbSymbolTableRecord
100
AcDbLinetypeTableRecord
  2
ACAD_ISO10W100
 70
     0
  3
__ . __ . __ . __ . __ . __ . _
 72
    65
 73
     4
 40
18.5
 49
12.0
 74
     0
 49
-3.0
 74
     0
 49
0.5
 74
     0
 49
-3.0
 74
     0
  0
LTYPE
  5
9F
330
5
100
AcDbSymbolTableRecord
100
AcDbLinetypeTableRecord
  2
ACAD_ISO11W100
 70
     0
  3
__ __ . __ __ . __ __ . __ __ .
 72
    65
 73
     6
 40
33.5
 49
12.0
 74
     0
 49
-3.0
 74
     0
 49
12.0
 74
     0
 49
-3.0
 74
     0
 49
0.5
 74
     0
 49
-3.0
 74
     0
  0
LTYPE
  5
A0
330
5
100
AcDbSymbolTableRecord
100
AcDbLinetypeTableRecord
  2
ACAD_ISO12W100
 70
     0
  3
__ . . __ . . __ . . __ . . __ 
 72
    65
 73
     6
 40
22.0
 49
12.0
 74
     0
 49
-3.0
 74
     0
 49
0.5
 74
     0
 49
-3.0
 74
     0
 49
0.5
 74
     0
 49
-3.0
 74
     0
  0
LTYPE
  5
A1
330
5
100
AcDbSymbolTableRecord
100
AcDbLinetypeTableRecord
  2
ACAD_ISO13W100
 70
     0
  3
__ __ . . __ __ . . __ __ . . _
 72
    65
 73
     6
 40
33.5
 49
12.0
 74
     0
 49
-3.0
 74
     0
 49
12.0
 74
     0
 49
-3.0
 74
     0
 49
0.5
 74
     0
 49
-3.0
 74
     0
  0
LTYPE
  5
A2
330
5
100
AcDbSymbolTableRecord
100
AcDbLinetypeTableRecord
  2
ACAD_ISO14W100
 70
     0
  3
__ . . . __ . . . __ . . . __ .
 72
    65
 73
     6
 40
22.0
 49
12.0
 74
     0
 49
-3.0
 74
     0
 49
0.5
 74
     0
 49
-3.0
 74
     0
 49
0.5
 74
     0
 49
-3.0
 74
     0
  0
LTYPE
  5
A3
330
5
100
AcDbSymbolTableRecord
100
AcDbLinetypeTableRecord
  2
ACAD_ISO15W100
 70
     0
  3
__ __ . . . __ __ . . . __ __ .
 72
    65
 73
     6
 40
33.5
 49
12.0
 74
     0
 49
-3.0
 74
     0
 49
12.0
 74
     0
 49
-3.0
 74
     0
 49
0.5
 74
     0
 49
-3.0
 74
     0
  0
ENDTAB
  0
TABLE
  2
LAYER
  5
2
330
0
100
AcDbSymbolTable
 70
     4
  0
LAYER
  5
5C
330
2
100
AcDbSymbolTableRecord
100
AcDbLayerTableRecord
  2
0
 70
     0
 62
     5
  6
Continuous
370
    -3
390
F
  0
LAYER
  5
A4
330
2
100
AcDbSymbolTableRecord
100
AcDbLayerTableRecord
  2
AUSSCHNEIDEN
 70
     0
 62
     7
  6
Continuous
370
    -3
390
F
  0
LAYER
  5
A5
330
2
100
AcDbSymbolTableRecord
100
AcDbLayerTableRecord
  2
TASCHE8MM
 70
     0
 62
    20
  6
Continuous
370
    -3
390
F
  0
LAYER
  5
A6
330
2
100
AcDbSymbolTableRecord
100
AcDbLayerTableRecord
  2
TEXT
 70
     0
 62
    94
  6
Continuous
370
    -3
390
F
  0
ENDTAB
  0
TABLE
  2
STYLE
  5
3
330
0
100
AcDbSymbolTable
 70
     5
  0
STYLE
  5
5D
330
3
100
AcDbSymbolTableRecord
100
AcDbTextStyleTableRecord
  2
Standard
 70
     0
 40
0.0
 41
1.0
 50
0.0
 71
     0
 42
62.90362608099155
  3
txt
  4

  0
STYLE
  5
62
330
3
100
AcDbSymbolTableRecord
100
AcDbTextStyleTableRecord
  2
Annotative
 70
     0
 40
0.0
 41
1.0
 50
0.0
 71
     0
 42
0.2
  3
txt
  4

1001
AcadAnnotative
1000
AnnotativeData
1002
{
1070
     1
1070
     1
1002
}
  0
STYLE
  5
A7
330
3
100
AcDbSymbolTableRecord
100
AcDbTextStyleTableRecord
  2
ITALIC
 70
     0
 40
0.0
 41
1.0
 50
0.0
 71
     0
 42
62.90362608099155
  3
ITALIC
  4

  0
STYLE
  5
A8
330
3
100
AcDbSymbolTableRecord
100
AcDbTextStyleTableRecord
  2
SIMPLEX
 70
     0
 40
0.0
 41
1.0
 50
0.0
 71
     0
 42
62.90362608099155
  3
SIMPLEX
  4

  0
STYLE
  5
A9
330
3
100
AcDbSymbolTableRecord
100
AcDbTextStyleTableRecord
  2
COMPLEX
 70
     0
 40
0.0
 41
1.0
 50
0.0
 71
     0
 42
62.90362608099155
  3
COMPLEX
  4

  0
ENDTAB
  0
TABLE
  2
VIEW
  5
6
330
0
100
AcDbSymbolTable
 70
     0
  0
ENDTAB
  0
TABLE
  2
UCS
  5
7
330
0
100
AcDbSymbolTable
 70
     0
  0
ENDTAB
  0
TABLE
  2
APPID
  5
9
330
0
100
AcDbSymbolTable
 70
     3
  0
APPID
  5
5E
330
9
100
AcDbSymbolTableRecord
100
AcDbRegAppTableRecord
  2
ACAD
 70
     0
  0
APPID
  5
66
330
9
100
AcDbSymbolTableRecord
100
AcDbRegAppTableRecord
  2
AcadAnnotative
 70
     0
  0
APPID
  5
70
330
9
100
AcDbSymbolTableRecord
100
AcDbRegAppTableRecord
  2
ACAD_MLEADERVER
 70
     0
  0
ENDTAB
  0
TABLE
  2
DIMSTYLE
  5
A
330
0
100
AcDbSymbolTable
 70
     2
100
AcDbDimStyleTable
 71
     0
  0
DIMSTYLE
105
60
330
A
100
AcDbSymbolTableRecord
100
AcDbDimStyleTableRecord
  2
Standard
 70
     0
340
5D
  0
DIMSTYLE
105
61
330
A
100
AcDbSymbolTableRecord
100
AcDbDimStyleTableRecord
  2
Annotative
 70
     0
340
5D
1001
AcadAnnotative
1000
AnnotativeData
1002
{
1070
     1
1070
     1
1002
}
  0
ENDTAB
  0
TABLE
  2
BLOCK_RECORD
  5
1
330
0
100
AcDbSymbolTable
 70
     1
  0
BLOCK_RECORD
  5
75
330
1
100
AcDbSymbolTableRecord
100
AcDbBlockTableRecord
  2
*Model_Space
340
78
  0
BLOCK_RECORD
  5
71
330
1
100
AcDbSymbolTableRecord
100
AcDbBlockTableRecord
  2
*Paper_Space
340
74
  0
BLOCK_RECORD
  5
79
330
1
100
AcDbSymbolTableRecord
100
AcDbBlockTableRecord
  2
*Paper_Space0
340
7C
  0
ENDTAB
  0
ENDSEC
  0
SECTION
  2
BLOCKS
  0
BLOCK
  5
76
330
75
100
AcDbEntity
  8
0
100
AcDbBlockBegin
  2
*Model_Space
 70
     0
 10
0.0
 20
0.0
 30
0.0
  3
*Model_Space
  1

  0
ENDBLK
  5
77
330
75
100
AcDbEntity
  8
0
100
AcDbBlockEnd
  0
BLOCK
  5
72
330
71
100
AcDbEntity
 67
     1
  8
0
100
AcDbBlockBegin
  2
*Paper_Space
 70
     0
 10
0.0
 20
0.0
 30
0.0
  3
*Paper_Space
  1

  0
ENDBLK
  5
73
330
71
100
AcDbEntity
 67
     1
  8
0
100
AcDbBlockEnd
  0
BLOCK
  5
7A
330
79
100
AcDbEntity
 67
     1
  8
0
100
AcDbBlockBegin
  2
*Paper_Space0
 70
     0
 10
0.0
 20
0.0
 30
0.0
  3
*Paper_Space0
  1

  0
ENDBLK
  5
7B
330
79
100
AcDbEntity
 67
     1
  8
0
100
AcDbBlockEnd
  0
ENDSEC
  0
SECTION
  2
ENTITIES
  0
LWPOLYLINE
  5
AA
330
75
100
AcDbEntity
  8
0
100
AcDbPolyline
 90
        4
 70
     1
 43
0.0
 10
-4.999999999999999
 20
-4.999999999999999
 10
510.0000000000003
 20
-4.999999999999999
 10
510.0000000000003
 20
355.0
 10
-4.999999999999999
 20
355.0
  0
LWPOLYLINE
  5
AB
330
75
100
AcDbEntity
  8
TEXT
100
AcDbPolyline
 90
      114
 70
     1
 43
0.0
 10
310.3236171237975
 20
48.91386715956036
 10
308.7785468161404
 20
47.72535153828564
 10
307.4711796327382
 20
46.53683591701092
 10
306.163812449336
 20
45.46717185786368
 10
304.8564452659338
 20
44.63521092297139
 10
302.8359687097668
 20
43.44669530169666
 10
300.8154921535998
 20
42.4958828046769
 10
298.7950155974328
 20
41.90162499403957
 10
296.7745390412659
 20
41.7827734319121
 10
295.1106171714812
 20
41.90162499403957
 10
293.6843984259515
 20
42.258179680422
 10
292.3770312425494
 20
42.85243749105933
 10
291.3073671834021
 20
43.8032499880791
 10
290.7131093727648
 20
44.51635936084391
 10
290.3565546863823
 20
45.22946873360877
 10
290.1188515621274
 20
46.18028123062853
 10
290.0
 20
47.1310937276483
 10
290.1188515621274
 20
48.55731247317793
 10
290.4754062485098
 20
50.10238278083508
 10
291.0696640591472
 20
51.64745308849219
 10
291.9016249940395
 20
53.31137495827676
 10
293.0901406153142
 20
54.97529682806138
 10
294.3975077987164
 20
56.75807025997344
 10
295.9425781063735
 20
58.5408436918855
 10
297.8442031004131
 20
60.32361712379755
 10
299.6269765323251
 20
61.98753899358218
 10
301.4097499642371
 20
63.4137577391118
 10
303.1925233961493
 20
64.72112492251399
 10
304.9752968280613
 20
65.67193741953376
 10
306.2826640114635
 20
66.38504679229858
 10
307.4711796327382
 20
66.86045304080848
 10
308.5408436918854
 20
67.09815616506339
 10
309.4916561889052
 20
67.21700772719092
 10
310.5613202480524
 20
67.09815616506339
 10
311.3932811829447
 20
66.62274991655353
 10
311.9875389935821
 20
66.14734366804367
 10
312.1063905557096
 20
65.67193741953376
 10
311.9875389935821
 20
65.19653117102386
 10
311.5121327450722
 20
64.60227336038652
 10
310.6801718101799
 20
63.77031242549423
 10
309.4916561889052
 20
62.93835149060194
 10
306.7580702599733
 20
60.68017181017999
 10
304.2621874552965
 20
58.5408436918855
 10
302.2417108991295
 20
56.63921869784596
 10
300.5777890293448
 20
54.73759370380643
 10
299.0327187216878
 20
52.59826558551194
 10
297.8442031004131
 20
50.81549215359989
 10
297.2499452897757
 20
49.15157028381532
 10
297.0122421655208
 20
47.84420310041311
 10
297.1310937276482
 20
47.24994528977577
 10
297.4876484140306
 20
46.89339060339335
 10
298.081906224668
 20
46.6556874791384
 10
298.7950155974328
 20
46.53683591701092
 10
299.7458280944526
 20
46.6556874791384
 10
300.8154921535998
 20
46.89339060339335
 10
301.885156212747
 20
47.48764841403068
 10
303.0736718340218
 20
48.20075778679555
 10
304.381039017424
 20
49.15157028381532
 10
305.8072577629536
 20
50.22123434296255
 10
307.2334765084832
 20
51.52860152636471
 10
308.7785468161404
 20
53.07367183402185
 10
311.9875389935821
 20
56.75807025997344
 10
316.0284921059162
 20
62.81949992847446
 10
317.9301170999556
 20
64.72112492251395
 10
318.8809295969754
 20
65.31538273315134
 10
319.9505936561227
 20
65.90964054378867
 10
320.9014061531424
 20
66.14734366804362
 10
321.8522186501622
 20
66.26619523017104
 10
322.9218827093094
 20
66.14734366804362
 10
323.7538436442017
 20
65.67193741953372
 10
324.2292498927116
 20
65.31538273315134
 10
324.4669530169665
 20
64.9588280467689
 10
324.7046561412215
 20
64.24571867400409
 10
324.585804579094
 20
63.77031242549419
 10
324.3481014548391
 20
63.17605461485685
 10
323.9915467684566
 20
62.46294524209199
 10
323.5161405199467
 20
61.6309843071997
 10
322.803031147182
 20
60.68017181017993
 10
321.9710702122896
 20
59.61050775103269
 10
320.9014061531424
 20
58.30314056763054
 10
319.7128905318677
 20
56.99577338422835
 10
318.2866717863381
 20
55.09414839018882
 10
317.2170077271908
 20
53.43022652040424
 10
316.6227499165535
 20
51.88515621274714
 10
316.3850467922985
 20
50.45893746721747
 10
316.503898354426
 20
49.15157028381532
 10
316.9793046029359
 20
47.84420310041311
 10
317.6924139757007
 20
46.77453904126587
 10
318.7620780348479
 20
45.70487498211859
 10
319.2374842833578
 20
45.3483202957362
 10
320.0694452182501
 20
44.99176560935377
 10
321.1391092773974
 20
44.51635936084387
 10
322.6841795850545
 20
44.040953112334
 10
323.3972889578193
 20
43.68439842595158
 10
323.8726952063292
 20
43.20899217744172
 10
324.1103983305841
 20
42.73358592893181
 10
324.2292498927116
 20
42.13932811829447
 10
324.1103983305841
 20
41.66392186978457
 10
323.9915467684566
 20
41.30736718340219
 10
323.6349920820742
 20
40.95081249701975
 10
323.1595858335644
 20
40.7131093727648
 10
321.9710702122896
 20
40.23770312425495
 10
320.4259999046325
 20
40.11885156212747
 10
318.7620780348479
 20
40.23770312425495
 10
317.0981561650634
 20
40.59425781063737
 10
315.5530858574062
 20
41.18851562127476
 10
314.0080155497491
 20
41.90162499403957
 10
312.8194999284744
 20
42.85243749105933
 10
311.8686874314546
 20
43.92210155020658
 10
311.1555780586898
 20
45.22946873360877
 10
310.6801718101799
 20
46.6556874791384
 10
310.5613202480524
 20
46.89339060339335
 10
310.5613202480524
 20
47.36879685190321
 10
310.442468685925
 20
48.08190622466807
  0
LWPOLYLINE
  5
AC
330
75
100
AcDbEntity
  8
TEXT
100
AcDbPolyline
 90
      100
 70
     1
 43
0.0
 10
340.5119139041751
 20
56.99577338422835
 10
339.5611014071554
 20
55.33185151444373
 10
338.6102889101356
 20
53.90563276891409
 10
337.8971795373708
 20
52.47941402338443
 10
337.3029217267334
 20
51.40974996423718
 10
336.8275154782235
 20
50.34008590508994
 10
336.4709607918411
 20
49.50812497019765
 10
336.2332576675862
 20
48.31960934892298
 10
336.3521092297136
 20
47.84420310041308
 10
336.7086639160961
 20
47.48764841403064
 10
337.184070164606
 20
47.36879685190316
 10
338.0160310994983
 20
47.24994528977574
 10
339.3233982829004
 20
47.48764841403064
 10
340.8684685905575
 20
47.96305466254055
 10
342.6512420224696
 20
48.91386715956032
 10
344.6717185786366
 20
50.22123434296251
 10
345.7413826377839
 20
51.17204683998227
 10
347.048749821186
 20
52.36056246125695
 10
348.5938201288432
 20
53.78678120678662
 10
351.0897029335201
 20
56.28266401146349
 10
351.9216638684123
 20
56.7580702599734
 10
352.7536248033046
 20
56.99577338422835
 10
353.4667341760695
 20
57.11462494635583
 10
354.2986951109618
 20
56.99577338422835
 10
354.8929529215992
 20
56.87692182210088
 10
355.2495076079815
 20
56.52036713571845
 10
355.3683591701091
 20
55.92610932508111
 10
355.2495076079815
 20
55.4507030765712
 10
354.8929529215992
 20
54.73759370380639
 10
354.4175466730893
 20
54.02448433104158
 10
353.5855857381969
 20
53.07367183402181
 10
352.6347732411772
 20
52.00400777487456
 10
351.4462576199024
 20
50.81549215359984
 10
349.9011873122453
 20
49.62697653232513
 10
348.2372654424608
 20
48.20075778679551
 10
346.4544920105487
 20
46.77453904126583
 10
344.6717185786366
 20
45.46717185786364
 10
342.8889451467246
 20
44.3975077987164
 10
341.2250232769399
 20
43.5655468638241
 10
339.5611014071554
 20
42.85243749105929
 10
337.8971795373708
 20
42.37703124254942
 10
336.2332576675862
 20
42.13932811829447
 10
334.688187359929
 20
42.020476556167
 10
333.3808201765269
 20
42.13932811829447
 10
332.1923045552522
 20
42.37703124254942
 10
331.122640496105
 20
42.85243749105929
 10
330.1718279990851
 20
43.44669530169663
 10
329.6964217505753
 20
44.040953112334
 10
329.3398670641928
 20
44.63521092297134
 10
329.1021639399379
 20
45.22946873360872
 10
328.9833123778105
 20
45.94257810637354
 10
329.1021639399379
 20
47.36879685190316
 10
329.5775701884478
 20
48.91386715956032
 10
330.4095311233401
 20
50.81549215359984
 10
331.3603436203599
 20
52.95482027189433
 10
332.7865623658895
 20
55.33185151444373
 10
334.4504842356741
 20
57.94658588124812
 10
336.3521092297136
 20
60.68017181017993
 10
338.6102889101356
 20
63.77031242549419
 10
341.7004295254499
 20
67.8112655378282
 10
344.7905701407641
 20
71.61451552590726
 10
347.8807107560784
 20
75.18006238973137
 10
350.9708513713927
 20
78.62675769142805
 10
357.2699841641486
 20
84.92589048418404
 10
360.4789763415903
 20
87.89717953737079
 10
363.5691169569045
 20
90.63076546630263
 10
366.0649997615815
 20
92.53239046034215
 10
368.5608825662583
 20
94.31516389225421
 10
370.8190622466802
 20
95.74138263778388
 10
372.9583903649747
 20
96.92989825905861
 10
374.9788669211418
 20
97.88071075607833
 10
376.9993434773088
 20
98.47496856671572
 10
378.7821169092209
 20
98.95037481522557
 10
380.5648903411329
 20
99.06922637735309
 10
382.4665153351724
 20
98.83152325309815
 10
383.2984762700647
 20
98.47496856671572
 10
384.0115856428295
 20
97.99956231820585
 10
384.6058434534669
 20
97.52415606969595
 10
385.0812497019768
 20
96.92989825905861
 10
385.3189528262317
 20
96.33564044842124
 10
385.4378043883592
 20
95.62253107565641
 10
385.2001012641043
 20
93.95860920587184
 10
384.8435465777218
 20
93.00779670885203
 10
384.3681403292119
 20
91.93813264970478
 10
383.6550309564472
 20
90.86846859055759
 10
382.9419215836823
 20
89.67995296928286
 10
381.0402965896427
 20
87.30292172673342
 10
379.8517809683681
 20
85.8767029812038
 10
375.4542731696516
 20
81.47919518248736
 10
373.6714997377396
 20
79.93412487483024
 10
371.7698747437001
 20
78.27020300504563
 10
369.749398187533
 20
76.48742957313356
 10
367.6100700692385
 20
74.70465614122152
 10
363.4502653947771
 20
71.37681240165232
 10
358.8150544718057
 20
68.16782022421058
 10
353.8232888624519
 20
64.83997648464143
 10
348.4749685667157
 20
61.6309843071997
 10
346.9298982590586
 20
60.68017181017993
 10
345.028273265019
 20
59.61050775103269
 10
342.8889451467246
 20
58.42199212975797
  0
LWPOLYLINE
  5
AD
330
75
100
AcDbEntity
  8
TEXT
100
AcDbPolyline
 90
       32
 70
     1
 43
0.0
 10
345.6225310756564
 20
64.24571867400409
 10
349.306929501608
 20
66.26619523017104
 10
352.8724763654321
 20
68.40552334846553
 10
356.3191716671288
 20
70.78255459101497
 10
359.647015406698
 20
73.27843739569185
 10
362.9748591462672
 20
75.89317176249624
 10
366.0649997615815
 20
78.62675769142805
 10
369.1551403768956
 20
81.47919518248736
 10
372.1264294300825
 20
84.45048423567412
 10
373.5526481756121
 20
85.99555454333124
 10
374.7411637968868
 20
87.30292172673342
 10
375.8108278560341
 20
88.61028891013562
 10
376.6427887909264
 20
89.67995296928286
 10
377.3558981636911
 20
90.63076546630263
 10
377.8313044122011
 20
91.5815779633224
 10
378.069007536456
 20
92.29468733608721
 10
378.1878590985835
 20
92.8889451467246
 10
378.069007536456
 20
93.24549983310697
 10
377.8313044122011
 20
93.60205451948941
 10
377.4747497258186
 20
93.72090608161688
 10
376.8804919151813
 20
93.83975764374437
 10
375.8108278560341
 20
93.72090608161688
 10
374.5034606726319
 20
93.24549983310697
 10
372.9583903649747
 20
92.41353889821468
 10
371.2944684951901
 20
91.34387483906744
 10
369.3928435011506
 20
90.03650765566524
 10
367.3723669449836
 20
88.25373422375319
 10
365.1141872645617
 20
86.23325766758618
 10
362.6183044598848
 20
83.97507798716427
 10
358.3396482232958
 20
79.69642175057529
 10
354.0609919867068
 20
74.94235926547647
 10
349.9011873122453
 20
69.83174209399521
  0
LWPOLYLINE
  5
AE
330
75
100
AcDbEntity
  8
TEXT
100
AcDbPolyline
 90
      146
 70
     1
 43
0.0
 10
386.9828746960163
 20
71.02025771526993
 10
384.6058434534669
 20
68.76207803484797
 10
382.4665153351724
 20
66.26619523017104
 10
380.3271872168779
 20
63.65146086336671
 10
378.306710660711
 20
60.91787493443489
 10
376.9993434773088
 20
59.01624994039535
 10
375.9296794181615
 20
57.11462494635583
 10
374.9788669211417
 20
55.4507030765712
 10
374.1469059862495
 20
53.90563276891409
 10
373.5526481756121
 20
52.47941402338443
 10
373.0772419271022
 20
51.17204683998227
 10
372.8395388028472
 20
49.98353121870756
 10
372.7206872407198
 20
48.91386715956032
 10
372.9583903649747
 20
47.96305466254055
 10
373.4337966134846
 20
47.24994528977574
 10
374.3846091105043
 20
46.77453904126583
 10
375.6919762939066
 20
46.65568747913836
 10
377.5936012879461
 20
46.89339060339331
 10
378.6632653470933
 20
47.24994528977574
 10
380.8025934653878
 20
48.31960934892298
 10
381.872257524535
 20
49.0327187216878
 10
383.1796247079373
 20
49.86467965658007
 10
384.3681403292119
 20
50.93434371572732
 10
387.4582809445262
 20
53.43022652040419
 10
390.7861246840954
 20
56.7580702599734
 10
391.4992340568602
 20
57.2334765084833
 10
392.212343429625
 20
57.47117963273821
 10
393.0443043645174
 20
57.59003119486568
 10
393.8762652994096
 20
57.47117963273821
 10
394.5893746721744
 20
57.11462494635583
 10
395.0647809206844
 20
56.7580702599734
 10
395.1836324828118
 20
56.40151557359097
 10
395.0647809206844
 20
55.92610932508111
 10
394.7082262343019
 20
55.21299995231625
 10
394.2328199857921
 20
54.49989057955143
 10
391.2615309326053
 20
51.52860152636466
 10
389.8353121870756
 20
50.34008590508994
 10
388.2902418794185
 20
48.91386715956032
 10
386.150913761124
 20
47.36879685190316
 10
384.130437204957
 20
45.94257810637354
 10
382.2288122109175
 20
44.75406248509882
 10
380.3271872168779
 20
43.68439842595158
 10
378.4255622228384
 20
42.97128905318676
 10
376.6427887909263
 20
42.49588280467686
 10
374.8600153590142
 20
42.13932811829447
 10
373.0772419271022
 20
42.020476556167
 10
371.2944684951901
 20
42.13932811829447
 10
369.749398187533
 20
42.49588280467686
 10
368.3231794420034
 20
43.20899217744172
 10
367.0158122586012
 20
44.15980467446149
 10
366.3027028858363
 20
44.8729140472263
 10
365.8272966373265
 20
45.70487498211859
 10
365.5895935130715
 20
46.77453904126583
 10
365.4707419509441
 20
47.96305466254055
 10
365.5895935130715
 20
49.38927340807017
 10
365.8272966373265
 20
50.81549215359984
 10
366.1838513237089
 20
52.24171089912947
 10
366.7781091343462
 20
53.78678120678662
 10
367.4912185071111
 20
55.4507030765712
 10
368.3231794420034
 20
57.11462494635583
 10
370.4625075602979
 20
60.68017181017993
 10
370.9379138088077
 20
61.1555780586898
 10
371.4133200573176
 20
61.86868743145465
 10
372.007577867955
 20
62.70064836634695
 10
372.8395388028472
 20
63.65146086336671
 10
373.790351299867
 20
64.83997648464143
 10
374.7411637968868
 20
66.14734366804362
 10
375.9296794181615
 20
67.69241397570073
 10
377.2370466015637
 20
69.3563358454853
 10
375.5731247317791
 20
69.11863272123039
 10
374.2657575483769
 20
69.11863272123039
 10
372.8395388028472
 20
69.23748428335783
 10
371.6510231815726
 20
69.59403896974025
 10
370.9379138088077
 20
69.95059365612269
 10
370.3436559981704
 20
70.30714834250507
 10
370.1059528739155
 20
70.66370302888749
 10
369.987101311788
 20
71.13910927739737
 10
370.1059528739155
 20
71.61451552590726
 10
370.4625075602979
 20
72.08992177441718
 10
371.1756169330627
 20
72.56532802292703
 10
372.1264294300825
 20
72.92188270930946
 10
372.2452809922099
 20
73.04073427143689
 10
372.6018356785923
 20
73.04073427143689
 10
373.0772419271022
 20
73.15958583356442
 10
373.6714997377396
 20
73.15958583356442
 10
374.5034606726318
 20
73.27843739569185
 10
375.3354216075242
 20
73.27843739569185
 10
376.2862341045439
 20
73.39728895781933
 10
377.4747497258186
 20
73.5161405199468
 10
378.4255622228384
 20
73.63499208207428
 10
379.6140778441131
 20
73.87269520632923
 10
380.9214450275153
 20
74.11039833058413
 10
382.5853668973
 20
74.34810145483908
 10
384.0115856428295
 20
75.89317176249624
 10
385.7943590747416
 20
77.67594519440828
 10
388.0525387551636
 20
79.69642175057529
 10
390.5484215598404
 20
81.95460143099726
 10
392.0934918674976
 20
83.26196861439941
 10
393.2820074887723
 20
84.21278111141917
 10
394.2328199857921
 20
84.92589048418404
 10
394.9459293585569
 20
85.52014829482137
 10
395.7778902934492
 20
85.99555454333124
 10
396.4909996662139
 20
86.35210922971365
 10
397.9172184117437
 20
86.58981235396861
 10
398.8680309087634
 20
86.47096079184114
 10
399.8188434057833
 20
85.99555454333124
 10
400.4131012164205
 20
85.40129673269388
 10
400.6508043406754
 20
84.80703892205657
 10
400.4131012164205
 20
84.0939295492917
 10
400.0565465300382
 20
83.61852330078184
 10
399.1057340330184
 20
82.43000767950713
 10
398.3926246602535
 20
81.7168983067423
 10
397.5606637253612
 20
81.00378893397749
 10
396.6098512283415
 20
80.17182799908521
 10
395.4213356070667
 20
79.10216393993796
 10
394.3516715479195
 20
78.15135144291815
 10
392.6877496781349
 20
76.48742957313356
 10
394.5893746721744
 20
76.843984259516
 10
396.3721481040865
 20
77.08168738377091
 10
399.4622887194008
 20
77.55709363228081
 10
400.7696559028029
 20
77.67594519440828
 10
401.9581715240776
 20
77.79479675653577
 10
403.0278355832249
 20
77.91364831866324
 10
404.8106090151369
 20
77.91364831866324
 10
405.6425699500293
 20
77.79479675653577
 10
406.2368277606666
 20
77.55709363228081
 10
406.8310855713039
 20
77.43824207015333
 10
407.5441949440688
 20
76.72513269738853
 10
407.7818980683237
 20
76.36857801100609
 10
407.7818980683237
 20
75.89317176249624
 10
407.6630465061963
 20
75.29891395185885
 10
407.4253433819412
 20
74.94235926547647
 10
407.0687886955589
 20
74.58580457909405
 10
406.4745308849215
 20
74.34810145483908
 10
405.9991246364116
 20
74.22924989271166
 10
405.1671637015193
 20
74.11039833058413
 10
404.0974996423721
 20
73.9915467684567
 10
402.7901324589699
 20
73.87269520632923
 10
402.31472621046
 20
73.87269520632923
 10
401.6016168376952
 20
73.75384364420175
 10
400.6508043406754
 20
73.63499208207428
 10
399.4622887194008
 20
73.39728895781933
 10
398.0360699738711
 20
73.15958583356442
 10
396.253296541959
 20
72.92188270930946
 10
394.3516715479195
 20
72.56532802292703
 10
392.0934918674976
 20
72.08992177441718
  0
LWPOLYLINE
  5
AF
330
75
100
AcDbEntity
  8
TEXT
100
AcDbPolyline
 90
      119
 70
     1
 43
0.0
 10
409.9212261866184
 20
56.87692182210088
 10
413.4867730504425
 20
59.25395306465027
 10
417.4088746006492
 20
61.51213274507223
 10
421.5686792751106
 20
63.77031242549419
 10
425.9661870738271
 20
66.14734366804362
 10
429.4128823755237
 20
67.69241397570073
 10
432.9784292393478
 20
69.11863272123039
 10
433.8103901742401
 20
69.47518740761278
 10
434.5234995470049
 20
69.59403896974025
 10
434.9989057955149
 20
69.83174209399521
 10
435.3554604818973
 20
69.83174209399521
 10
435.8308667304072
 20
69.71289053186772
 10
436.4251245410445
 20
69.59403896974025
 10
436.9005307895544
 20
69.23748428335783
 10
437.4947886001918
 20
68.88092959697544
 10
437.9701948487017
 20
68.28667178633811
 10
438.0890464108291
 20
67.8112655378282
 10
437.9701948487017
 20
67.33585928931829
 10
437.3759370380643
 20
66.86045304080844
 10
436.543976103172
 20
66.26619523017104
 10
435.3554604818973
 20
65.55308585740625
 10
433.6915386121127
 20
64.72112492251395
 10
432.1464683044555
 20
63.88916398762166
 10
430.9579526831808
 20
63.05720305272937
 10
429.8882886240336
 20
62.34409367996452
 10
429.1751792512687
 20
61.74983586932718
 10
428.5809214406315
 20
61.03672649656236
 10
428.224366754249
 20
60.56132024805246
 10
428.1055151921216
 20
60.08591399954259
 10
428.224366754249
 20
59.61050775103269
 10
428.5809214406315
 20
59.25395306465027
 10
429.1751792512687
 20
59.13510150252283
 10
430.007140186161
 20
59.01624994039535
 10
430.8391011210533
 20
59.01624994039535
 10
431.7899136180732
 20
59.25395306465027
 10
432.8595776772204
 20
59.49165618890521
 10
434.1669448606226
 20
59.84821087528764
 10
435.4743120440248
 20
60.3236171237975
 10
437.0193823516819
 20
60.79902337230741
 10
438.6833042214665
 20
61.51213274507223
 10
440.4660776533786
 20
62.22524211783704
 10
441.6545932746532
 20
62.58179680421946
 10
442.605405771673
 20
62.81949992847442
 10
443.1996635823103
 20
62.70064836634695
 10
443.7939213929477
 20
62.34409367996452
 10
444.2693276414576
 20
61.98753899358213
 10
444.3881792035852
 20
61.51213274507223
 10
444.2693276414576
 20
61.1555780586898
 10
444.0316245172025
 20
60.79902337230741
 10
443.5562182686929
 20
60.3236171237975
 10
442.8431088959279
 20
59.84821087528764
 10
442.0111479610356
 20
59.37280462677774
 10
441.0603354640158
 20
58.7785468161404
 10
439.8718198427411
 20
58.0654374433756
 10
438.4456010972116
 20
57.47117963273821
 10
435.3554604818973
 20
56.16381244933606
 10
432.3841714287105
 20
55.21299995231625
 10
429.4128823755237
 20
54.61874214167892
 10
426.5604448844645
 20
54.49989057955143
 10
424.4211167661701
 20
54.73759370380639
 10
422.4006402100028
 20
55.21299995231625
 10
421.6875308372381
 20
55.68840620082615
 10
421.0932730266007
 20
56.16381244933606
 10
420.8555699023458
 20
56.7580702599734
 10
420.7367183402182
 20
57.47117963273821
 10
420.8555699023458
 20
58.0654374433756
 10
421.0932730266007
 20
58.65969525401293
 10
421.5686792751106
 20
59.37280462677774
 10
422.2817886478756
 20
60.08591399954259
 10
419.3104995946887
 20
58.54084369188544
 10
416.1015074172469
 20
56.63921869784592
 10
412.6548121155503
 20
54.26218745529652
 10
408.9704136895985
 20
51.40974996423718
 10
406.8310855713039
 20
49.38927340807017
 10
404.5729058908819
 20
47.13109372764826
 10
402.4335777725875
 20
44.75406248509882
 10
400.1753980921655
 20
42.020476556167
 10
399.3434371572734
 20
41.18851562127471
 10
398.3926246602535
 20
40.47540624850985
 10
397.3229606011063
 20
40.11885156212747
 10
396.1344449798316
 20
40.0
 10
395.0647809206844
 20
40.11885156212747
 10
394.2328199857921
 20
40.35655468638238
 10
393.6385621751547
 20
40.83196093489228
 10
393.5197106130272
 20
41.54507030765709
 10
393.6385621751547
 20
42.020476556167
 10
393.7574137372822
 20
42.61473436680434
 10
394.1139684236645
 20
43.44669530169663
 10
394.5893746721744
 20
44.3975077987164
 10
395.1836324828118
 20
45.46717185786364
 10
395.8967418555766
 20
46.77453904126583
 10
396.7287027904689
 20
48.20075778679551
 10
397.6795152874887
 20
49.7458280944526
 10
400.7696559028029
 20
54.49989057955143
 10
402.31472621046
 20
56.52036713571845
 10
403.9786480802447
 20
58.54084369188544
 10
405.5237183879017
 20
60.44246868592498
 10
407.1876402576864
 20
62.10639055570961
 10
410.5154839972558
 20
65.19653117102381
 10
412.4171089912954
 20
66.62274991655348
 10
414.3187339853348
 20
67.69241397570073
 10
415.8638042929921
 20
68.28667178633811
 10
417.4088746006492
 20
68.52437491059301
 10
418.2408355355414
 20
68.40552334846553
 10
419.0727964704337
 20
68.16782022421058
 10
419.5482027189436
 20
67.93011709995568
 10
419.7859058431985
 20
67.69241397570073
 10
420.0236089674535
 20
66.97930460293591
 10
419.904757405326
 20
66.62274991655348
 10
419.6670542810712
 20
66.26619523017104
 10
419.1916480325613
 20
65.67193741953372
 10
418.5973902219238
 20
65.19653117102381
 10
418.2408355355414
 20
64.83997648464143
 10
417.5277261627767
 20
64.24571867400409
 10
416.339210541502
 20
63.41375773911176
 10
414.7941402338448
 20
62.10639055570961
 10
413.3679214883152
 20
60.79902337230741
 10
412.060554304913
 20
59.49165618890521
 10
410.8720386836382
 20
58.18428900550302
  0
LWPOLYLINE
  5
B0
330
75
100
AcDbEntity
  8
TEXT
100
AcDbPolyline
 90
       86
 70
     1
 43
0.0
 10
463.1667260197254
 20
49.50812497019765
 10
460.7896947771761
 20
47.01224216552078
 10
458.5315150967541
 20
44.99176560935377
 10
456.2733354163323
 20
43.5655468638241
 10
454.1340072980378
 20
42.37703124254942
 10
451.8758276176158
 20
41.78277343191204
 10
449.7364994993213
 20
41.54507030765709
 10
447.8348745052817
 20
41.66392186978457
 10
446.2898041976246
 20
42.13932811829447
 10
444.8635854520949
 20
42.85243749105929
 10
443.6750698308202
 20
43.80324998807906
 10
443.0808120201829
 20
44.63521092297134
 10
442.7242573338004
 20
45.46717185786364
 10
442.4865542095455
 20
46.4179843548834
 10
442.367702647418
 20
47.36879685190316
 10
442.4865542095455
 20
48.55731247317788
 10
442.7242573338004
 20
49.86467965658007
 10
443.0808120201829
 20
51.29089840210975
 10
443.6750698308202
 20
52.5982655855119
 10
444.2693276414576
 20
54.02448433104158
 10
446.1709526354971
 20
56.87692182210088
 10
447.3594682567719
 20
58.42199212975797
 10
450.2119057478312
 20
61.51213274507223
 10
453.4208979252729
 20
64.24571867400409
 10
456.986444789097
 20
66.62274991655348
 10
460.6708432150486
 20
68.6432264727205
 10
463.2855775818529
 20
69.71289053186772
 10
465.7814603865298
 20
70.42599990463255
 10
468.1584916290794
 20
70.90140615314246
 10
470.6543744337562
 20
71.02025771526993
 10
472.0805931792858
 20
70.90140615314246
 10
473.3879603626879
 20
70.66370302888749
 10
474.5764759839628
 20
70.30714834250507
 10
475.6461400431099
 20
69.83174209399521
 10
476.3592494158747
 20
69.3563358454853
 10
476.8346556643846
 20
68.76207803484797
 10
477.191210350767
 20
68.16782022421058
 10
477.3100619128945
 20
67.45471085144576
 10
477.191210350767
 20
66.97930460293591
 10
476.9535072265121
 20
66.38504679229853
 10
476.5969525401297
 20
65.55308585740625
 10
476.1215462916198
 20
64.72112492251395
 10
476.5969525401297
 20
64.36457023613153
 10
476.9535072265121
 20
63.88916398762166
 10
477.0723587886396
 20
63.53260930123923
 10
477.191210350767
 20
63.05720305272937
 10
477.0723587886396
 20
62.58179680421946
 10
476.7158041022571
 20
61.86868743145465
 10
476.0026947294924
 20
61.03672649656236
 10
475.1707337946
 20
59.96706243741512
 10
474.1010697354529
 20
58.7785468161404
 10
473.1502572384331
 20
57.47117963273821
 10
472.0805931792858
 20
55.92610932508111
 10
471.1297806822662
 20
54.14333589316905
 10
470.0601166231187
 20
52.36056246125695
 10
469.4658588124815
 20
50.69664059147237
 10
468.9904525639716
 20
49.2704218459427
 10
468.8716010018441
 20
47.96305466254055
 10
468.9904525639716
 20
47.13109372764826
 10
469.347007250354
 20
46.29913279275593
 10
469.8224134988639
 20
45.58602341999111
 10
470.6543744337562
 20
44.8729140472263
 10
471.0109291201386
 20
44.75406248509882
 10
471.6051869307758
 20
44.51635936084387
 10
472.4371478656683
 20
44.15980467446149
 10
473.625663486943
 20
43.80324998807906
 10
474.3387728597078
 20
43.5655468638241
 10
474.9330306703452
 20
43.09014061531424
 10
475.2895853567276
 20
42.61473436680434
 10
475.4084369188551
 20
42.020476556167
 10
475.2895853567276
 20
41.54507030765709
 10
474.8141791082177
 20
40.83196093489228
 10
474.3387728597078
 20
40.59425781063732
 10
473.1502572384331
 20
40.11885156212747
 10
471.8428900550309
 20
40.0
 10
470.0601166231187
 20
40.11885156212747
 10
468.2773431912067
 20
40.47540624850985
 10
466.7322728835497
 20
41.18851562127471
 10
465.1872025758926
 20
42.020476556167
 10
464.2363900788727
 20
42.97128905318676
 10
463.523280706108
 20
44.040953112334
 10
463.0478744575981
 20
45.22946873360872
 10
462.9290228954705
 20
46.53683591701088
 10
462.9290228954705
 20
47.01224216552078
 10
463.0478744575981
 20
47.7253515382856
 10
463.0478744575981
 20
48.43846091105041
  0
LWPOLYLINE
  5
B1
330
75
100
AcDbEntity
  8
TEXT
100
AcDbPolyline
 90
       40
 70
     1
 43
0.0
 10
472.0805931792858
 20
64.36457023613153
 10
471.2486322443934
 20
65.19653117102381
 10
470.2978197473738
 20
65.7907889816612
 10
469.2281556882265
 20
66.14734366804362
 10
468.1584916290794
 20
66.26619523017104
 10
466.7322728835497
 20
66.14734366804362
 10
465.4249057001474
 20
65.90964054378867
 10
463.9986869546177
 20
65.43423429527877
 10
462.4536166469606
 20
64.72112492251395
 10
461.0273979014309
 20
63.88916398762166
 10
459.4823275937739
 20
62.93835149060189
 10
456.3921869784596
 20
60.3236171237975
 10
454.728265108675
 20
58.65969525401293
 10
453.3020463631455
 20
57.11462494635583
 10
452.1135307418706
 20
55.56955463869868
 10
451.162718244851
 20
54.14333589316905
 10
450.3307573099587
 20
52.83596870976686
 10
449.8553510614488
 20
51.52860152636466
 10
449.4987963750664
 20
50.22123434296251
 10
449.3799448129388
 20
49.0327187216878
 10
449.4987963750664
 20
48.08190622466803
 10
450.0930541857036
 20
47.36879685190316
 10
450.925015120596
 20
46.89339060339331
 10
452.1135307418706
 20
46.77453904126583
 10
452.945491676763
 20
46.89339060339331
 10
453.8963041737828
 20
47.01224216552078
 10
454.8471166708025
 20
47.36879685190316
 10
455.7979291678223
 20
47.96305466254055
 10
456.8675932269695
 20
48.55731247317788
 10
457.8184057239893
 20
49.38927340807017
 10
459.006921345264
 20
50.34008590508994
 10
461.3839525878135
 20
52.71711714763938
 10
462.9290228954705
 20
54.49989057955143
 10
464.5929447652552
 20
56.52036713571845
 10
466.3757181971672
 20
58.7785468161404
 10
467.5642338184419
 20
60.20476556167007
 10
468.6338978775891
 20
61.39328118294475
 10
469.4658588124815
 20
62.34409367996452
 10
470.0601166231187
 20
63.05720305272937
 10
470.8920775580111
 20
63.65146086336671
  0
LINE
  5
B2
330
75
100
AcDbEntity
  8
AUSSCHNEIDEN
  6
Continuous
100
AcDbLine
 10
3.000000253999998
 20
170.000000254
 30
0.0
 11
499.0000002539999
 21
170.000000254
 31
0.0
  0
LINE
  5
B3
330
75
100
AcDbEntity
  8
AUSSCHNEIDEN
  6
Continuous
100
AcDbLine
 10
499.0000002539999
 20
0.0000002540000041
 30
0.0
 11
393.2426409411
 21
0.0000002540000041
 31
0.0
  0
CIRCLE
  5
B4
330
75
100
AcDbEntity
  8
AUSSCHNEIDEN
  6
Continuous
100
AcDbCircle
 10
20.000000254
 20
150.000000254
 30
0.0
 40
4.25
  0
CIRCLE
  5
B5
330
75
100
AcDbEntity
  8
AUSSCHNEIDEN
  6
Continuous
100
AcDbCircle
 10
20.000000254
 20
110.0000002539999
 30
0.0
 40
4.25
  0
CIRCLE
  5
B6
330
75
100
AcDbEntity
  8
AUSSCHNEIDEN
  6
Continuous
100
AcDbCircle
 10
482.0000002539999
 20
150.000000254
 30
0.0
 40
4.25
  0
CIRCLE
  5
B7
330
75
100
AcDbEntity
  8
AUSSCHNEIDEN
  6
Continuous
100
AcDbCircle
 10
482.0000002539999
 20
110.0000002539999
 30
0.0
 40
4.25
  0
CIRCLE
  5
B8
330
75
100
AcDbEntity
  8
AUSSCHNEIDEN
  6
Continuous
100
AcDbCircle
 10
251.0000002539999
 20
150.000000254
 30
0.0
 40
2.75
  0
CIRCLE
  5
B9
330
75
100
AcDbEntity
  8
AUSSCHNEIDEN
  6
Continuous
100
AcDbCircle
 10
328.000000254
 20
150.000000254
 30
0.0
 40
2.75
  0
CIRCLE
  5
BA
330
75
100
AcDbEntity
  8
AUSSCHNEIDEN
  6
Continuous
100
AcDbCircle
 10
405.0000002539999
 20
150.000000254
 30
0.0
 40
2.75
  0
CIRCLE
  5
BB
330
75
100
AcDbEntity
  8
AUSSCHNEIDEN
  6
Continuous
100
AcDbCircle
 10
97.00000025400001
 20
150.000000254
 30
0.0
 40
2.75
  0
CIRCLE
  5
BC
330
75
100
AcDbEntity
  8
AUSSCHNEIDEN
  6
Continuous
100
AcDbCircle
 10
174.000000254
 20
150.000000254
 30
0.0
 40
2.75
  0
LINE
  5
BD
330
75
100
AcDbEntity
  8
AUSSCHNEIDEN
  6
Continuous
100
AcDbLine
 10
110.8786799103999
 20
0.8786799104000026
 30
0.0
 11
129.1213205976
 21
19.12132059759999
 31
0.0
  0
LINE
  5
BE
330
75
100
AcDbEntity
  8
AUSSCHNEIDEN
  6
Continuous
100
AcDbLine
 10
391.1213205976
 20
0.8786799104000026
 30
0.0
 11
372.8786799104
 21
19.12132059759999
 31
0.0
  0
LINE
  5
BF
330
75
100
AcDbEntity
  8
AUSSCHNEIDEN
  6
Continuous
100
AcDbLine
 10
131.2426409411
 20
20.000000254
 30
0.0
 11
370.7573595669
 21
20.000000254
 31
0.0
  0
LINE
  5
C0
330
75
100
AcDbEntity
  8
AUSSCHNEIDEN
  6
Continuous
100
AcDbLine
 10
108.7573595669
 20
0.0000002540000041
 30
0.0
 11
3.000000253999993
 21
0.0000002540000041
 31
0.0
  0
ARC
  5
C1
330
75
100
AcDbEntity
  8
AUSSCHNEIDEN
  6
Continuous
100
AcDbCircle
 10
108.7573595669
 20
3.000000253999998
 30
0.0
 40
3.0
100
AcDbArc
 50
270.0
 51
315.0
  0
ARC
  5
C2
330
75
100
AcDbEntity
  8
AUSSCHNEIDEN
  6
Continuous
100
AcDbCircle
 10
131.2426409411
 20
17.00000025399999
 30
0.0
 40
3.0
100
AcDbArc
 50
90.0
 51
135.0
  0
ARC
  5
C3
330
75
100
AcDbEntity
  8
AUSSCHNEIDEN
  6
Continuous
100
AcDbCircle
 10
370.7573595669
 20
17.00000025399999
 30
0.0
 40
3.0
100
AcDbArc
 50
45.0
 51
90.0
  0
ARC
  5
C4
330
75
100
AcDbEntity
  8
AUSSCHNEIDEN
  6
Continuous
100
AcDbCircle
 10
393.2426409411
 20
3.000000253999998
 30
0.0
 40
3.0
100
AcDbArc
 50
225.0
 51
270.0
  0
CIRCLE
  5
C5
330
75
100
AcDbEntity
  8
AUSSCHNEIDEN
  6
Continuous
100
AcDbCircle
 10
251.0000002539999
 20
96.50000025399998
 30
0.0
 40
13.0
  0
LINE
  5
C6
330
75
100
AcDbEntity
  8
AUSSCHNEIDEN
  6
Continuous
100
AcDbLine
 10
0.0000002539999985
 20
167.0000002539999
 30
0.0
 11
0.0000002539999985
 21
3.000000253999998
 31
0.0
  0
LINE
  5
C7
330
75
100
AcDbEntity
  8
AUSSCHNEIDEN
  6
Continuous
100
AcDbLine
 10
502.0000002539999
 20
167.0000002539999
 30
0.0
 11
502.0000002539999
 21
3.000000253999998
 31
0.0
  0
ARC
  5
C8
330
75
100
AcDbEntity
  8
AUSSCHNEIDEN
  6
Continuous
100
AcDbCircle
 10
3.000000253999998
 20
167.0000002539999
 30
0.0
 40
3.0
100
AcDbArc
 50
90.0
 51
180.0
  0
ARC
  5
C9
330
75
100
AcDbEntity
  8
AUSSCHNEIDEN
  6
Continuous
100
AcDbCircle
 10
499.0000002539999
 20
167.0000002539999
 30
0.0
 40
3.0
100
AcDbArc
 50
0.0
 51
90.0
  0
ARC
  5
CA
330
75
100
AcDbEntity
  8
AUSSCHNEIDEN
  6
Continuous
100
AcDbCircle
 10
499.0000002539999
 20
3.000000253999998
 30
0.0
 40
3.0
100
AcDbArc
 50
270.0
 51
0.0
  0
ARC
  5
CB
330
75
100
AcDbEntity
  8
AUSSCHNEIDEN
  6
Continuous
100
AcDbCircle
 10
3.000000253999998
 20
3.000000253999998
 30
0.0
 40
3.0
100
AcDbArc
 50
180.0
 51
270.0
  0
LINE
  5
CC
330
75
100
AcDbEntity
  8
AUSSCHNEIDEN
  6
Continuous
100
AcDbLine
 10
499.0000002540002
 20
180.0000002539998
 30
0.0
 11
3.000000254000331
 21
180.0000002539999
 31
0.0
  0
LINE
  5
CD
330
75
100
AcDbEntity
  8
AUSSCHNEIDEN
  6
Continuous
100
AcDbLine
 10
3.000000254000331
 20
350.000000254
 30
0.0
 11
108.7573595669004
 21
350.000000254
 31
0.0
  0
CIRCLE
  5
CE
330
75
100
AcDbEntity
  8
AUSSCHNEIDEN
  6
Continuous
100
AcDbCircle
 10
482.0000002540002
 20
200.0000002539998
 30
0.0
 40
4.25
  0
CIRCLE
  5
CF
330
75
100
AcDbEntity
  8
AUSSCHNEIDEN
  6
Continuous
100
AcDbCircle
 10
482.0000002540002
 20
240.0000002539999
 30
0.0
 40
4.25
  0
CIRCLE
  5
D0
330
75
100
AcDbEntity
  8
AUSSCHNEIDEN
  6
Continuous
100
AcDbCircle
 10
20.00000025400034
 20
200.000000254
 30
0.0
 40
4.25
  0
CIRCLE
  5
D1
330
75
100
AcDbEntity
  8
AUSSCHNEIDEN
  6
Continuous
100
AcDbCircle
 10
20.00000025400034
 20
240.0000002540001
 30
0.0
 40
4.25
  0
CIRCLE
  5
D2
330
75
100
AcDbEntity
  8
AUSSCHNEIDEN
  6
Continuous
100
AcDbCircle
 10
251.0000002540003
 20
200.000000254
 30
0.0
 40
2.75
  0
CIRCLE
  5
D3
330
75
100
AcDbEntity
  8
AUSSCHNEIDEN
  6
Continuous
100
AcDbCircle
 10
174.0000002540003
 20
200.000000254
 30
0.0
 40
2.75
  0
CIRCLE
  5
D4
330
75
100
AcDbEntity
  8
AUSSCHNEIDEN
  6
Continuous
100
AcDbCircle
 10
97.00000025400029
 20
200.000000254
 30
0.0
 40
2.75
  0
CIRCLE
  5
D5
330
75
100
AcDbEntity
  8
AUSSCHNEIDEN
  6
Continuous
100
AcDbCircle
 10
405.0000002540001
 20
200.0000002539999
 30
0.0
 40
2.75
  0
CIRCLE
  5
D6
330
75
100
AcDbEntity
  8
AUSSCHNEIDEN
  6
Continuous
100
AcDbCircle
 10
328.0000002540003
 20
200.0000002539999
 30
0.0
 40
2.75
  0
LINE
  5
D7
330
75
100
AcDbEntity
  8
AUSSCHNEIDEN
  6
Continuous
100
AcDbLine
 10
391.1213205976003
 20
349.1213205975999
 30
0.0
 11
372.8786799104002
 21
330.8786799103998
 31
0.0
  0
LINE
  5
D8
330
75
100
AcDbEntity
  8
AUSSCHNEIDEN
  6
Continuous
100
AcDbLine
 10
110.8786799104003
 20
349.1213205975999
 30
0.0
 11
129.1213205976002
 21
330.8786799104
 31
0.0
  0
LINE
  5
D9
330
75
100
AcDbEntity
  8
AUSSCHNEIDEN
  6
Continuous
100
AcDbLine
 10
370.7573595669003
 20
330.0000002539999
 30
0.0
 11
131.2426409411002
 21
330.000000254
 31
0.0
  0
LINE
  5
DA
330
75
100
AcDbEntity
  8
AUSSCHNEIDEN
  6
Continuous
100
AcDbLine
 10
393.2426409411003
 20
350.0000002539999
 30
0.0
 11
499.0000002540002
 21
350.0000002539999
 31
0.0
  0
ARC
  5
DB
330
75
100
AcDbEntity
  8
AUSSCHNEIDEN
  6
Continuous
100
AcDbCircle
 10
393.2426409411003
 20
347.0000002539999
 30
0.0
 40
3.0
100
AcDbArc
 50
90.0
 51
135.0
  0
ARC
  5
DC
330
75
100
AcDbEntity
  8
AUSSCHNEIDEN
  6
Continuous
100
AcDbCircle
 10
370.7573595669003
 20
333.0000002539999
 30
0.0
 40
3.0
100
AcDbArc
 50
270.0
 51
315.0
  0
ARC
  5
DD
330
75
100
AcDbEntity
  8
AUSSCHNEIDEN
  6
Continuous
100
AcDbCircle
 10
131.2426409411002
 20
333.000000254
 30
0.0
 40
3.0
100
AcDbArc
 50
225.0
 51
270.0
  0
ARC
  5
DE
330
75
100
AcDbEntity
  8
AUSSCHNEIDEN
  6
Continuous
100
AcDbCircle
 10
108.7573595669004
 20
347.000000254
 30
0.0
 40
3.0
100
AcDbArc
 50
45.0
 51
90.0
  0
CIRCLE
  5
DF
330
75
100
AcDbEntity
  8
AUSSCHNEIDEN
  6
Continuous
100
AcDbCircle
 10
251.0000002540003
 20
253.500000254
 30
0.0
 40
13.0
  0
CIRCLE
  5
E0
330
75
100
AcDbEntity
  8
TASCHE8MM
  6
Continuous
100
AcDbCircle
 10
251.0000002540003
 20
253.500000254
 30
0.0
 40
16.00000000000006
  0
CIRCLE
  5
E1
330
75
100
AcDbEntity
  8
AUSSCHNEIDEN
  6
Continuous
100
AcDbCircle
 10
274.5000002540002
 20
230.000000254
 30
0.0
 40
2.1
  0
CIRCLE
  5
E2
330
75
100
AcDbEntity
  8
AUSSCHNEIDEN
  6
Continuous
100
AcDbCircle
 10
227.5000002540003
 20
230.000000254
 30
0.0
 40
2.1
  0
CIRCLE
  5
E3
330
75
100
AcDbEntity
  8
AUSSCHNEIDEN
  6
Continuous
100
AcDbCircle
 10
274.5000002540002
 20
277.000000254
 30
0.0
 40
2.1
  0
CIRCLE
  5
E4
330
75
100
AcDbEntity
  8
AUSSCHNEIDEN
  6
Continuous
100
AcDbCircle
 10
227.5000002540003
 20
277.000000254
 30
0.0
 40
2.1
  0
LINE
  5
E5
330
75
100
AcDbEntity
  8
AUSSCHNEIDEN
  6
Continuous
100
AcDbLine
 10
502.0000002540002
 20
183.0000002539998
 30
0.0
 11
502.0000002540002
 21
347.0000002539998
 31
0.0
  0
LINE
  5
E6
330
75
100
AcDbEntity
  8
AUSSCHNEIDEN
  6
Continuous
100
AcDbLine
 10
0.0000002540002917
 20
183.000000254
 30
0.0
 11
0.0000002540002917
 21
347.000000254
 31
0.0
  0
ARC
  5
E7
330
75
100
AcDbEntity
  8
AUSSCHNEIDEN
  6
Continuous
100
AcDbCircle
 10
499.0000002540002
 20
183.0000002539998
 30
0.0
 40
3.0
100
AcDbArc
 50
270.0
 51
0.0
  0
ARC
  5
E8
330
75
100
AcDbEntity
  8
AUSSCHNEIDEN
  6
Continuous
100
AcDbCircle
 10
3.000000254000331
 20
183.000000254
 30
0.0
 40
3.0
100
AcDbArc
 50
180.0
 51
270.0
  0
ARC
  5
E9
330
75
100
AcDbEntity
  8
AUSSCHNEIDEN
  6
Continuous
100
AcDbCircle
 10
3.000000254000331
 20
347.000000254
 30
0.0
 40
3.0
100
AcDbArc
 50
90.0
 51
180.0
  0
ARC
  5
EA
330
75
100
AcDbEntity
  8
AUSSCHNEIDEN
  6
Continuous
100
AcDbCircle
 10
499.0000002540002
 20
347.0000002539998
 30
0.0
 40
3.0
100
AcDbArc
 50
0.0
 51
90.0
  0
CIRCLE
  5
EB
330
75
100
AcDbEntity
  8
TASCHE8MM
  6
Continuous
100
AcDbCircle
 10
251.0000002540003
 20
253.500000254
 30
0.0
 40
7.999999999999999
  0
LINE
  5
EC
330
75
100
AcDbEntity
  8
TEXT
100
AcDbLine
 10
53.6812474131584
 20
73.23016671538352
 30
0.0
 11
81.88346024155615
 21
46.31965829133987
 31
0.0
  0
LINE
  5
ED
330
75
100
AcDbEntity
  8
TEXT
100
AcDbLine
 10
81.88346024155615
 20
46.31965829133987
 30
0.0
 11
84.35922701656817
 21
43.84389151632785
 31
0.0
  0
LINE
  5
EE
330
75
100
AcDbEntity
  8
TEXT
100
AcDbLine
 10
84.35922701656817
 20
43.84389151632785
 30
0.0
 11
85.22036328613756
 21
43.1980393141508
 31
0.0
  0
LINE
  5
EF
330
75
100
AcDbEntity
  8
TEXT
100
AcDbLine
 10
85.22036328613756
 20
43.1980393141508
 30
0.0
 11
85.97385752201079
 21
42.7674711793661
 31
0.0
  0
LINE
  5
F0
330
75
100
AcDbEntity
  8
TEXT
100
AcDbLine
 10
85.97385752201079
 20
42.7674711793661
 30
0.0
 11
86.51206769049165
 21
42.65982914566992
 31
0.0
  0
LINE
  5
F1
330
75
100
AcDbEntity
  8
TEXT
100
AcDbLine
 10
86.51206769049165
 20
42.65982914566992
 30
0.0
 11
87.05027785897254
 21
42.55218711197375
 31
0.0
  0
LINE
  5
F2
330
75
100
AcDbEntity
  8
TEXT
100
AcDbLine
 10
87.05027785897254
 20
42.55218711197375
 30
0.0
 11
87.80377209484575
 21
42.55218711197375
 31
0.0
  0
LINE
  5
F3
330
75
100
AcDbEntity
  8
TEXT
100
AcDbLine
 10
87.80377209484575
 20
42.55218711197375
 30
0.0
 11
88.66490836441515
 21
42.55218711197375
 31
0.0
  0
LINE
  5
F4
330
75
100
AcDbEntity
  8
TEXT
100
AcDbLine
 10
88.66490836441515
 20
42.55218711197375
 30
0.0
 11
88.66490836441515
 21
39.36113626956939
 31
0.0
  0
LINE
  5
F5
330
75
100
AcDbEntity
  8
TEXT
100
AcDbLine
 10
88.66490836441515
 20
39.36113626956939
 30
0.0
 11
85.5432893872261
 21
39.57642033696174
 31
0.0
  0
LINE
  5
F6
330
75
100
AcDbEntity
  8
TEXT
100
AcDbLine
 10
85.5432893872261
 20
39.57642033696174
 30
0.0
 11
82.74459651112556
 21
39.68406237065792
 31
0.0
  0
LINE
  5
F7
330
75
100
AcDbEntity
  8
TEXT
100
AcDbLine
 10
82.74459651112556
 20
39.68406237065792
 30
0.0
 11
79.94590363502502
 21
39.57642033696174
 31
0.0
  0
LINE
  5
F8
330
75
100
AcDbEntity
  8
TEXT
100
AcDbLine
 10
79.94590363502502
 20
39.57642033696174
 30
0.0
 11
77.30567298781583
 21
39.39433546474042
 31
0.0
  0
LINE
  5
F9
330
75
100
AcDbEntity
  8
TEXT
100
AcDbLine
 10
77.30567298781583
 20
39.39433546474042
 30
0.0
 11
48.40678776204585
 21
67.41749689579009
 31
0.0
  0
LINE
  5
FA
330
75
100
AcDbEntity
  8
TEXT
100
AcDbLine
 10
48.40678776204585
 20
67.41749689579009
 30
0.0
 11
47.7609355598688
 21
68.06334909796714
 31
0.0
  0
LINE
  5
FB
330
75
100
AcDbEntity
  8
TEXT
100
AcDbLine
 10
47.7609355598688
 20
68.06334909796714
 30
0.0
 11
47.22272539138793
 21
68.49391723275184
 31
0.0
  0
LINE
  5
FC
330
75
100
AcDbEntity
  8
TEXT
100
AcDbLine
 10
47.22272539138793
 20
68.49391723275184
 30
0.0
 11
46.79215725660323
 21
68.81684333384036
 31
0.0
  0
LINE
  5
FD
330
75
100
AcDbEntity
  8
TEXT
100
AcDbLine
 10
46.79215725660323
 20
68.81684333384036
 30
0.0
 11
46.57687318921088
 21
68.81684333384036
 31
0.0
  0
LINE
  5
FE
330
75
100
AcDbEntity
  8
TEXT
100
AcDbLine
 10
46.57687318921088
 20
68.81684333384036
 30
0.0
 11
46.25394708812236
 21
68.70920130014418
 31
0.0
  0
LINE
  5
FF
330
75
100
AcDbEntity
  8
TEXT
100
AcDbLine
 10
46.25394708812236
 20
68.70920130014418
 30
0.0
 11
45.93102098703384
 21
68.49391723275184
 31
0.0
  0
LINE
  5
100
330
75
100
AcDbEntity
  8
TEXT
100
AcDbLine
 10
45.93102098703384
 20
68.49391723275184
 30
0.0
 11
45.82337895333767
 21
67.95570706427096
 31
0.0
  0
LINE
  5
101
330
75
100
AcDbEntity
  8
TEXT
100
AcDbLine
 10
45.82337895333767
 20
67.95570706427096
 30
0.0
 11
45.71573691964148
 21
67.20221282839775
 31
0.0
  0
LINE
  5
102
330
75
100
AcDbEntity
  8
TEXT
100
AcDbLine
 10
45.71573691964148
 20
67.20221282839775
 30
0.0
 11
45.71573691964148
 21
54.39281081855297
 31
0.0
  0
LINE
  5
103
330
75
100
AcDbEntity
  8
TEXT
100
AcDbLine
 10
45.71573691964148
 20
54.39281081855297
 30
0.0
 11
45.71573691964148
 21
52.1323281109333
 31
0.0
  0
LINE
  5
104
330
75
100
AcDbEntity
  8
TEXT
100
AcDbLine
 10
45.71573691964148
 20
52.1323281109333
 30
0.0
 11
45.71573691964148
 21
50.19477150440216
 31
0.0
  0
LINE
  5
105
330
75
100
AcDbEntity
  8
TEXT
100
AcDbLine
 10
45.71573691964148
 20
50.19477150440216
 30
0.0
 11
45.82337895333767
 21
48.47249896526336
 31
0.0
  0
LINE
  5
106
330
75
100
AcDbEntity
  8
TEXT
100
AcDbLine
 10
45.82337895333767
 20
48.47249896526336
 30
0.0
 11
45.82337895333767
 21
47.07315252721309
 31
0.0
  0
LINE
  5
107
330
75
100
AcDbEntity
  8
TEXT
100
AcDbLine
 10
45.82337895333767
 20
47.07315252721309
 30
0.0
 11
45.82337895333767
 21
45.88909015655517
 31
0.0
  0
LINE
  5
108
330
75
100
AcDbEntity
  8
TEXT
100
AcDbLine
 10
45.82337895333767
 20
45.88909015655517
 30
0.0
 11
45.93102098703384
 21
45.02795388698578
 31
0.0
  0
LINE
  5
109
330
75
100
AcDbEntity
  8
TEXT
100
AcDbLine
 10
45.93102098703384
 20
45.02795388698578
 30
0.0
 11
46.03866302073001
 21
44.38210168480872
 31
0.0
  0
LINE
  5
10A
330
75
100
AcDbEntity
  8
TEXT
100
AcDbLine
 10
46.03866302073001
 20
44.38210168480872
 30
0.0
 11
46.03866302073001
 21
44.0591755837202
 31
0.0
  0
LINE
  5
10B
330
75
100
AcDbEntity
  8
TEXT
100
AcDbLine
 10
46.03866302073001
 20
44.0591755837202
 30
0.0
 11
46.57687318921088
 21
43.41332338154315
 31
0.0
  0
LINE
  5
10C
330
75
100
AcDbEntity
  8
TEXT
100
AcDbLine
 10
46.57687318921088
 20
43.41332338154315
 30
0.0
 11
47.54565149247645
 21
42.87511321306229
 31
0.0
  0
LINE
  5
10D
330
75
100
AcDbEntity
  8
TEXT
100
AcDbLine
 10
47.54565149247645
 20
42.87511321306229
 30
0.0
 11
48.83735589683055
 21
42.65982914566992
 31
0.0
  0
LINE
  5
10E
330
75
100
AcDbEntity
  8
TEXT
100
AcDbLine
 10
48.83735589683055
 20
42.65982914566992
 30
0.0
 11
50.55962843596934
 21
42.55218711197375
 31
0.0
  0
LINE
  5
10F
330
75
100
AcDbEntity
  8
TEXT
100
AcDbLine
 10
50.55962843596934
 20
42.55218711197375
 30
0.0
 11
53.6812474131584
 21
42.55218711197375
 31
0.0
  0
LINE
  5
110
330
75
100
AcDbEntity
  8
TEXT
100
AcDbLine
 10
53.6812474131584
 20
42.55218711197375
 30
0.0
 11
53.6812474131584
 21
39.36113626956939
 31
0.0
  0
LINE
  5
111
330
75
100
AcDbEntity
  8
TEXT
100
AcDbLine
 10
53.6812474131584
 20
39.36113626956939
 30
0.0
 11
50.45198640227317
 21
39.46877830326556
 31
0.0
  0
LINE
  5
112
330
75
100
AcDbEntity
  8
TEXT
100
AcDbLine
 10
50.45198640227317
 20
39.46877830326556
 30
0.0
 11
47.3303674250841
 21
39.57642033696174
 31
0.0
  0
LINE
  5
113
330
75
100
AcDbEntity
  8
TEXT
100
AcDbLine
 10
47.3303674250841
 20
39.57642033696174
 30
0.0
 11
44.42403251528739
 21
39.68406237065792
 31
0.0
  0
LINE
  5
114
330
75
100
AcDbEntity
  8
TEXT
100
AcDbLine
 10
44.42403251528739
 20
39.68406237065792
 30
0.0
 11
41.73298167288303
 21
39.68406237065792
 31
0.0
  0
LINE
  5
115
330
75
100
AcDbEntity
  8
TEXT
100
AcDbLine
 10
41.73298167288303
 20
39.68406237065792
 30
0.0
 11
36.02795388698578
 21
39.57642033696174
 31
0.0
  0
LINE
  5
116
330
75
100
AcDbEntity
  8
TEXT
100
AcDbLine
 10
36.02795388698578
 20
39.57642033696174
 30
0.0
 11
30.0
 21
39.36113626956939
 31
0.0
  0
LINE
  5
117
330
75
100
AcDbEntity
  8
TEXT
100
AcDbLine
 10
30.0
 20
39.36113626956939
 30
0.0
 11
30.0
 21
42.55218711197375
 31
0.0
  0
LINE
  5
118
330
75
100
AcDbEntity
  8
TEXT
100
AcDbLine
 10
30.0
 20
42.55218711197375
 30
0.0
 11
33.33690304458141
 21
42.55218711197375
 31
0.0
  0
LINE
  5
119
330
75
100
AcDbEntity
  8
TEXT
100
AcDbLine
 10
33.33690304458141
 20
42.55218711197375
 30
0.0
 11
34.84389151632785
 21
42.65982914566992
 31
0.0
  0
LINE
  5
11A
330
75
100
AcDbEntity
  8
TEXT
100
AcDbLine
 10
34.84389151632785
 20
42.65982914566992
 30
0.0
 11
36.02795388698578
 21
42.87511321306229
 31
0.0
  0
LINE
  5
11B
330
75
100
AcDbEntity
  8
TEXT
100
AcDbLine
 10
36.02795388698578
 20
42.87511321306229
 30
0.0
 11
36.781448122859
 21
43.1980393141508
 31
0.0
  0
LINE
  5
11C
330
75
100
AcDbEntity
  8
TEXT
100
AcDbLine
 10
36.781448122859
 20
43.1980393141508
 30
0.0
 11
37.31965829133987
 21
43.73624948263167
 31
0.0
  0
LINE
  5
11D
330
75
100
AcDbEntity
  8
TEXT
100
AcDbLine
 10
37.31965829133987
 20
43.73624948263167
 30
0.0
 11
37.42730032503605
 21
44.27445965111255
 31
0.0
  0
LINE
  5
11E
330
75
100
AcDbEntity
  8
TEXT
100
AcDbLine
 10
37.42730032503605
 20
44.27445965111255
 30
0.0
 11
37.6425843924284
 21
44.9203118532896
 31
0.0
  0
LINE
  5
11F
330
75
100
AcDbEntity
  8
TEXT
100
AcDbLine
 10
37.6425843924284
 20
44.9203118532896
 30
0.0
 11
37.75022642612457
 21
45.88909015655517
 31
0.0
  0
LINE
  5
120
330
75
100
AcDbEntity
  8
TEXT
100
AcDbLine
 10
37.75022642612457
 20
45.88909015655517
 30
0.0
 11
37.85786845982074
 21
47.07315252721309
 31
0.0
  0
LINE
  5
121
330
75
100
AcDbEntity
  8
TEXT
100
AcDbLine
 10
37.85786845982074
 20
47.07315252721309
 30
0.0
 11
37.85786845982074
 21
48.58014099895953
 31
0.0
  0
LINE
  5
122
330
75
100
AcDbEntity
  8
TEXT
100
AcDbLine
 10
37.85786845982074
 20
48.58014099895953
 30
0.0
 11
37.96551049351692
 21
50.30241353809833
 31
0.0
  0
LINE
  5
123
330
75
100
AcDbEntity
  8
TEXT
100
AcDbLine
 10
37.96551049351692
 20
50.30241353809833
 30
0.0
 11
37.96551049351692
 21
52.23997014462947
 31
0.0
  0
LINE
  5
124
330
75
100
AcDbEntity
  8
TEXT
100
AcDbLine
 10
37.96551049351692
 20
52.23997014462947
 30
0.0
 11
37.96551049351692
 21
54.50045285224914
 31
0.0
  0
LINE
  5
125
330
75
100
AcDbEntity
  8
TEXT
100
AcDbLine
 10
37.96551049351692
 20
54.50045285224914
 30
0.0
 11
37.96551049351692
 21
82.70266568064689
 31
0.0
  0
LINE
  5
126
330
75
100
AcDbEntity
  8
TEXT
100
AcDbLine
 10
37.96551049351692
 20
82.70266568064689
 30
0.0
 11
37.96551049351692
 21
85.50135855674744
 31
0.0
  0
LINE
  5
127
330
75
100
AcDbEntity
  8
TEXT
100
AcDbLine
 10
37.96551049351692
 20
85.50135855674744
 30
0.0
 11
37.96551049351692
 21
87.86948329806326
 31
0.0
  0
LINE
  5
128
330
75
100
AcDbEntity
  8
TEXT
100
AcDbLine
 10
37.96551049351692
 20
87.86948329806326
 30
0.0
 11
37.85786845982074
 21
90.02232397198676
 31
0.0
  0
LINE
  5
129
330
75
100
AcDbEntity
  8
TEXT
100
AcDbLine
 10
37.85786845982074
 20
90.02232397198676
 30
0.0
 11
37.85786845982074
 21
91.74459651112556
 31
0.0
  0
LINE
  5
12A
330
75
100
AcDbEntity
  8
TEXT
100
AcDbLine
 10
37.85786845982074
 20
91.74459651112556
 30
0.0
 11
37.75022642612457
 21
93.251584982872
 31
0.0
  0
LINE
  5
12B
330
75
100
AcDbEntity
  8
TEXT
100
AcDbLine
 10
37.75022642612457
 20
93.251584982872
 30
0.0
 11
37.6425843924284
 21
94.43564735352993
 31
0.0
  0
LINE
  5
12C
330
75
100
AcDbEntity
  8
TEXT
100
AcDbLine
 10
37.6425843924284
 20
94.43564735352993
 30
0.0
 11
37.42730032503605
 21
95.29678362309931
 31
0.0
  0
LINE
  5
12D
330
75
100
AcDbEntity
  8
TEXT
100
AcDbLine
 10
37.42730032503605
 20
95.29678362309931
 30
0.0
 11
37.31965829133987
 21
95.72735175788402
 31
0.0
  0
LINE
  5
12E
330
75
100
AcDbEntity
  8
TEXT
100
AcDbLine
 10
37.31965829133987
 20
95.72735175788402
 30
0.0
 11
36.781448122859
 21
96.37320396006106
 31
0.0
  0
LINE
  5
12F
330
75
100
AcDbEntity
  8
TEXT
100
AcDbLine
 10
36.781448122859
 20
96.37320396006106
 30
0.0
 11
36.02795388698578
 21
96.91141412854193
 31
0.0
  0
LINE
  5
130
330
75
100
AcDbEntity
  8
TEXT
100
AcDbLine
 10
36.02795388698578
 20
96.91141412854193
 30
0.0
 11
34.84389151632785
 21
97.12669819593429
 31
0.0
  0
LINE
  5
131
330
75
100
AcDbEntity
  8
TEXT
100
AcDbLine
 10
34.84389151632785
 20
97.12669819593429
 30
0.0
 11
33.33690304458141
 21
97.23434022963047
 31
0.0
  0
LINE
  5
132
330
75
100
AcDbEntity
  8
TEXT
100
AcDbLine
 10
33.33690304458141
 20
97.23434022963047
 30
0.0
 11
30.0
 21
97.23434022963047
 31
0.0
  0
LINE
  5
133
330
75
100
AcDbEntity
  8
TEXT
100
AcDbLine
 10
30.0
 20
97.23434022963047
 30
0.0
 11
30.0
 21
100.4253910720348
 31
0.0
  0
LINE
  5
134
330
75
100
AcDbEntity
  8
TEXT
100
AcDbLine
 10
30.0
 20
100.4253910720348
 30
0.0
 11
31.82991457283497
 21
100.3177490383386
 31
0.0
  0
LINE
  5
135
330
75
100
AcDbEntity
  8
TEXT
100
AcDbLine
 10
31.82991457283497
 20
100.3177490383386
 30
0.0
 11
33.55218711197376
 21
100.3177490383386
 31
0.0
  0
LINE
  5
136
330
75
100
AcDbEntity
  8
TEXT
100
AcDbLine
 10
33.55218711197376
 20
100.3177490383386
 30
0.0
 11
35.05917558372021
 21
100.2101070046425
 31
0.0
  0
LINE
  5
137
330
75
100
AcDbEntity
  8
TEXT
100
AcDbLine
 10
35.05917558372021
 20
100.2101070046425
 30
0.0
 11
36.56616405546665
 21
100.2101070046425
 31
0.0
  0
LINE
  5
138
330
75
100
AcDbEntity
  8
TEXT
100
AcDbLine
 10
36.56616405546665
 20
100.2101070046425
 30
0.0
 11
37.85786845982074
 21
100.1024649709463
 31
0.0
  0
LINE
  5
139
330
75
100
AcDbEntity
  8
TEXT
100
AcDbLine
 10
37.85786845982074
 20
100.1024649709463
 30
0.0
 11
39.04193083047866
 21
100.1024649709463
 31
0.0
  0
LINE
  5
13A
330
75
100
AcDbEntity
  8
TEXT
100
AcDbLine
 10
39.04193083047866
 20
100.1024649709463
 30
0.0
 11
40.01070913374423
 21
100.1024649709463
 31
0.0
  0
LINE
  5
13B
330
75
100
AcDbEntity
  8
TEXT
100
AcDbLine
 10
40.01070913374423
 20
100.1024649709463
 30
0.0
 11
40.97948743700981
 21
100.1024649709463
 31
0.0
  0
LINE
  5
13C
330
75
100
AcDbEntity
  8
TEXT
100
AcDbLine
 10
40.97948743700981
 20
100.1024649709463
 30
0.0
 11
41.73298167288303
 21
100.1024649709463
 31
0.0
  0
LINE
  5
13D
330
75
100
AcDbEntity
  8
TEXT
100
AcDbLine
 10
41.73298167288303
 20
100.1024649709463
 30
0.0
 11
42.7017599761486
 21
100.1024649709463
 31
0.0
  0
LINE
  5
13E
330
75
100
AcDbEntity
  8
TEXT
100
AcDbLine
 10
42.7017599761486
 20
100.1024649709463
 30
0.0
 11
43.88582234680652
 21
100.1024649709463
 31
0.0
  0
LINE
  5
13F
330
75
100
AcDbEntity
  8
TEXT
100
AcDbLine
 10
43.88582234680652
 20
100.1024649709463
 30
0.0
 11
45.39281081855296
 21
100.2101070046425
 31
0.0
  0
LINE
  5
140
330
75
100
AcDbEntity
  8
TEXT
100
AcDbLine
 10
45.39281081855296
 20
100.2101070046425
 30
0.0
 11
47.11508335769176
 21
100.2101070046425
 31
0.0
  0
LINE
  5
141
330
75
100
AcDbEntity
  8
TEXT
100
AcDbLine
 10
47.11508335769176
 20
100.2101070046425
 30
0.0
 11
49.05263996422291
 21
100.3177490383386
 31
0.0
  0
LINE
  5
142
330
75
100
AcDbEntity
  8
TEXT
100
AcDbLine
 10
49.05263996422291
 20
100.3177490383386
 30
0.0
 11
51.20548063814639
 21
100.3177490383386
 31
0.0
  0
LINE
  5
143
330
75
100
AcDbEntity
  8
TEXT
100
AcDbLine
 10
51.20548063814639
 20
100.3177490383386
 30
0.0
 11
53.6812474131584
 21
100.4253910720348
 31
0.0
  0
LINE
  5
144
330
75
100
AcDbEntity
  8
TEXT
100
AcDbLine
 10
53.6812474131584
 20
100.4253910720348
 30
0.0
 11
53.6812474131584
 21
97.23434022963047
 31
0.0
  0
LINE
  5
145
330
75
100
AcDbEntity
  8
TEXT
100
AcDbLine
 10
53.6812474131584
 20
97.23434022963047
 30
0.0
 11
50.45198640227317
 21
97.12669819593429
 31
0.0
  0
LINE
  5
146
330
75
100
AcDbEntity
  8
TEXT
100
AcDbLine
 10
50.45198640227317
 20
97.12669819593429
 30
0.0
 11
49.16028199791908
 21
97.01905616223811
 31
0.0
  0
LINE
  5
147
330
75
100
AcDbEntity
  8
TEXT
100
AcDbLine
 10
49.16028199791908
 20
97.01905616223811
 30
0.0
 11
48.08386166095733
 21
96.80377209484577
 31
0.0
  0
LINE
  5
148
330
75
100
AcDbEntity
  8
TEXT
100
AcDbLine
 10
48.08386166095733
 20
96.80377209484577
 30
0.0
 11
47.3303674250841
 21
96.58848802745342
 31
0.0
  0
LINE
  5
149
330
75
100
AcDbEntity
  8
TEXT
100
AcDbLine
 10
47.3303674250841
 20
96.58848802745342
 30
0.0
 11
46.79215725660323
 21
96.2655619263649
 31
0.0
  0
LINE
  5
14A
330
75
100
AcDbEntity
  8
TEXT
100
AcDbLine
 10
46.79215725660323
 20
96.2655619263649
 30
0.0
 11
46.46923115551471
 21
95.94263582527636
 31
0.0
  0
LINE
  5
14B
330
75
100
AcDbEntity
  8
TEXT
100
AcDbLine
 10
46.46923115551471
 20
95.94263582527636
 30
0.0
 11
46.25394708812236
 21
95.29678362309931
 31
0.0
  0
LINE
  5
14C
330
75
100
AcDbEntity
  8
TEXT
100
AcDbLine
 10
46.25394708812236
 20
95.29678362309931
 30
0.0
 11
46.03866302073001
 21
94.65093142092227
 31
0.0
  0
LINE
  5
14D
330
75
100
AcDbEntity
  8
TEXT
100
AcDbLine
 10
46.03866302073001
 20
94.65093142092227
 30
0.0
 11
45.93102098703384
 21
93.6821531176567
 31
0.0
  0
LINE
  5
14E
330
75
100
AcDbEntity
  8
TEXT
100
AcDbLine
 10
45.93102098703384
 20
93.6821531176567
 30
0.0
 11
45.82337895333767
 21
93.14394294917581
 31
0.0
  0
LINE
  5
14F
330
75
100
AcDbEntity
  8
TEXT
100
AcDbLine
 10
45.82337895333767
 20
93.14394294917581
 30
0.0
 11
45.82337895333767
 21
92.28280667960644
 31
0.0
  0
LINE
  5
150
330
75
100
AcDbEntity
  8
TEXT
100
AcDbLine
 10
45.82337895333767
 20
92.28280667960644
 30
0.0
 11
45.82337895333767
 21
91.20638634264469
 31
0.0
  0
LINE
  5
151
330
75
100
AcDbEntity
  8
TEXT
100
AcDbLine
 10
45.82337895333767
 20
91.20638634264469
 30
0.0
 11
45.71573691964148
 21
89.91468193829058
 31
0.0
  0
LINE
  5
152
330
75
100
AcDbEntity
  8
TEXT
100
AcDbLine
 10
45.71573691964148
 20
89.91468193829058
 30
0.0
 11
45.71573691964148
 21
88.40769346654415
 31
0.0
  0
LINE
  5
153
330
75
100
AcDbEntity
  8
TEXT
100
AcDbLine
 10
45.71573691964148
 20
88.40769346654415
 30
0.0
 11
45.71573691964148
 21
86.68542092740535
 31
0.0
  0
LINE
  5
154
330
75
100
AcDbEntity
  8
TEXT
100
AcDbLine
 10
45.71573691964148
 20
86.68542092740535
 30
0.0
 11
45.71573691964148
 21
84.74786432087421
 31
0.0
  0
LINE
  5
155
330
75
100
AcDbEntity
  8
TEXT
100
AcDbLine
 10
45.71573691964148
 20
84.74786432087421
 30
0.0
 11
45.71573691964148
 21
82.59502364695071
 31
0.0
  0
LINE
  5
156
330
75
100
AcDbEntity
  8
TEXT
100
AcDbLine
 10
45.71573691964148
 20
82.59502364695071
 30
0.0
 11
45.71573691964148
 21
72.1849680751562
 31
0.0
  0
LINE
  5
157
330
75
100
AcDbEntity
  8
TEXT
100
AcDbLine
 10
45.71573691964148
 20
72.1849680751562
 30
0.0
 11
46.25394708812236
 21
72.1849680751562
 31
0.0
  0
LINE
  5
158
330
75
100
AcDbEntity
  8
TEXT
100
AcDbLine
 10
46.25394708812236
 20
72.18496807515625
 30
0.0
 11
47.97621962726116
 21
72.58431451320648
 31
0.0
  0
LINE
  5
159
330
75
100
AcDbEntity
  8
TEXT
100
AcDbLine
 10
47.97621962726116
 20
72.58431451320648
 30
0.0
 11
49.4832080990076
 21
73.87601891756057
 31
0.0
  0
LINE
  5
15A
330
75
100
AcDbEntity
  8
TEXT
100
AcDbLine
 10
49.4832080990076
 20
73.87601891756057
 30
0.0
 11
50.88255453705786
 21
75.16772332191466
 31
0.0
  0
LINE
  5
15B
330
75
100
AcDbEntity
  8
TEXT
100
AcDbLine
 10
50.88255453705786
 20
75.16772332191466
 30
0.0
 11
52.17425894141197
 21
76.35178569257259
 31
0.0
  0
LINE
  5
15C
330
75
100
AcDbEntity
  8
TEXT
100
AcDbLine
 10
52.17425894141197
 20
76.35178569257259
 30
0.0
 11
52.82011114358901
 21
76.99763789474963
 31
0.0
  0
LINE
  5
15D
330
75
100
AcDbEntity
  8
TEXT
100
AcDbLine
 10
52.82011114358901
 20
76.99763789474963
 30
0.0
 11
53.57360537946223
 21
77.75113213062287
 31
0.0
  0
LINE
  5
15E
330
75
100
AcDbEntity
  8
TEXT
100
AcDbLine
 10
53.57360537946223
 20
77.75113213062287
 30
0.0
 11
54.43474164903163
 21
78.61226840019225
 31
0.0
  0
LINE
  5
15F
330
75
100
AcDbEntity
  8
TEXT
100
AcDbLine
 10
54.43474164903163
 20
78.61226840019225
 30
0.0
 11
55.4035199522972
 21
79.58104670345782
 31
0.0
  0
LINE
  5
160
330
75
100
AcDbEntity
  8
TEXT
100
AcDbLine
 10
55.4035199522972
 20
79.58104670345782
 30
0.0
 11
56.37229825556277
 21
80.65746704041957
 31
0.0
  0
LINE
  5
161
330
75
100
AcDbEntity
  8
TEXT
100
AcDbLine
 10
56.37229825556277
 20
80.65746704041957
 30
0.0
 11
57.5563606262207
 21
81.84152941107749
 31
0.0
  0
LINE
  5
162
330
75
100
AcDbEntity
  8
TEXT
100
AcDbLine
 10
57.5563606262207
 20
81.84152941107749
 30
0.0
 11
58.84806503057479
 21
83.1332338154316
 31
0.0
  0
LINE
  5
163
330
75
100
AcDbEntity
  8
TEXT
100
AcDbLine
 10
58.84806503057479
 20
83.1332338154316
 30
0.0
 11
60.13976943492888
 21
84.53258025348185
 31
0.0
  0
LINE
  5
164
330
75
100
AcDbEntity
  8
TEXT
100
AcDbLine
 10
60.13976943492888
 20
84.53258025348185
 30
0.0
 11
71.87275110781192
 21
96.91141412854193
 31
0.0
  0
LINE
  5
165
330
75
100
AcDbEntity
  8
TEXT
100
AcDbLine
 10
71.87275110781192
 20
96.91141412854193
 30
0.0
 11
71.87275110781192
 21
100.4253910720348
 31
0.0
  0
LINE
  5
166
330
75
100
AcDbEntity
  8
TEXT
100
AcDbLine
 10
71.87275110781192
 20
100.4253910720348
 30
0.0
 11
74.13323381543158
 21
100.3177490383386
 31
0.0
  0
LINE
  5
167
330
75
100
AcDbEntity
  8
TEXT
100
AcDbLine
 10
74.13323381543158
 20
100.3177490383386
 30
0.0
 11
76.07079042196272
 21
100.2101070046425
 31
0.0
  0
LINE
  5
168
330
75
100
AcDbEntity
  8
TEXT
100
AcDbLine
 10
76.07079042196272
 20
100.2101070046425
 30
0.0
 11
77.79306296110153
 21
100.1024649709463
 31
0.0
  0
LINE
  5
169
330
75
100
AcDbEntity
  8
TEXT
100
AcDbLine
 10
77.79306296110153
 20
100.1024649709463
 30
0.0
 11
79.40769346654414
 21
100.1024649709463
 31
0.0
  0
LINE
  5
16A
330
75
100
AcDbEntity
  8
TEXT
100
AcDbLine
 10
79.40769346654414
 20
100.1024649709463
 30
0.0
 11
82.74459651112556
 21
100.2101070046425
 31
0.0
  0
LINE
  5
16B
330
75
100
AcDbEntity
  8
TEXT
100
AcDbLine
 10
82.74459651112556
 20
100.2101070046425
 30
0.0
 11
86.29678362309931
 21
100.4253910720348
 31
0.0
  0
LINE
  5
16C
330
75
100
AcDbEntity
  8
TEXT
100
AcDbLine
 10
86.29678362309931
 20
100.4253910720348
 30
0.0
 11
86.29678362309931
 21
97.23434022963047
 31
0.0
  0
LINE
  5
16D
330
75
100
AcDbEntity
  8
TEXT
100
AcDbLine
 10
86.29678362309931
 20
97.23434022963047
 30
0.0
 11
84.03630091547965
 21
97.23434022963047
 31
0.0
  0
LINE
  5
16E
330
75
100
AcDbEntity
  8
TEXT
100
AcDbLine
 10
84.03630091547965
 20
97.23434022963047
 30
0.0
 11
82.63695447742938
 21
97.12669819593429
 31
0.0
  0
LINE
  5
16F
330
75
100
AcDbEntity
  8
TEXT
100
AcDbLine
 10
82.63695447742938
 20
97.12669819593429
 30
0.0
 11
81.34525007307528
 21
96.91141412854193
 31
0.0
  0
LINE
  5
170
330
75
100
AcDbEntity
  8
TEXT
100
AcDbLine
 10
81.34525007307528
 20
96.91141412854193
 30
0.0
 11
80.16118770241737
 21
96.58848802745342
 31
0.0
  0
LINE
  5
171
330
75
100
AcDbEntity
  8
TEXT
100
AcDbLine
 10
80.16118770241737
 20
96.58848802745342
 30
0.0
 11
78.97712533175944
 21
96.05027785897256
 31
0.0
  0
LINE
  5
172
330
75
100
AcDbEntity
  8
TEXT
100
AcDbLine
 10
78.97712533175944
 20
96.05027785897256
 30
0.0
 11
78.43891516327857
 21
95.72735175788402
 31
0.0
  0
LINE
  5
173
330
75
100
AcDbEntity
  8
TEXT
100
AcDbLine
 10
78.43891516327857
 20
95.72735175788402
 30
0.0
 11
77.68542092740535
 21
95.08149955570697
 31
0.0
  0
LINE
  5
174
330
75
100
AcDbEntity
  8
TEXT
100
AcDbLine
 10
77.68542092740535
 20
95.08149955570697
 30
0.0
 11
76.71664262413978
 21
94.32800531983374
 31
0.0
  0
LINE
  5
175
330
75
100
AcDbEntity
  8
TEXT
100
AcDbLine
 10
76.71664262413978
 20
94.32800531983374
 30
0.0
 11
75.64022228717803
 21
93.46686905026436
 31
0.0
  0
LINE
  5
176
330
75
100
AcDbEntity
  8
TEXT
100
AcDbLine
 10
75.64022228717803
 20
93.46686905026436
 30
0.0
 11
74.34851788282393
 21
92.28280667960644
 31
0.0
  0
LINE
  5
177
330
75
100
AcDbEntity
  8
TEXT
100
AcDbLine
 10
74.34851788282393
 20
92.28280667960644
 30
0.0
 11
72.84152941107748
 21
90.99110227525233
 31
0.0
  0
LINE
  5
178
330
75
100
AcDbEntity
  8
TEXT
100
AcDbLine
 10
72.84152941107748
 20
90.99110227525233
 30
0.0
 11
71.22689890563487
 21
89.59175583720208
 31
0.0
  0
LINE
  5
179
330
75
100
AcDbEntity
  8
TEXT
100
AcDbLine
 10
71.22689890563487
 20
89.59175583720208
 30
0.0
 11
69.50462636649607
 21
87.86948329806326
 31
0.0
  0
LINE
  5
17A
330
75
100
AcDbEntity
  8
TEXT
100
AcDbLine
 10
69.50462636649607
 20
87.86948329806326
 30
0.0
 11
53.6812474131584
 21
73.23016671538352
 31
0.0
  0
LINE
  5
17B
330
75
100
AcDbEntity
  8
TEXT
100
AcDbLine
 10
92.32473751008509
 20
42.55218711197375
 30
0.0
 11
94.90814631879329
 21
42.55218711197375
 31
0.0
  0
LINE
  5
17C
330
75
100
AcDbEntity
  8
TEXT
100
AcDbLine
 10
94.90814631879329
 20
42.55218711197375
 30
0.0
 11
96.63041885793203
 21
42.65982914566992
 31
0.0
  0
LINE
  5
17D
330
75
100
AcDbEntity
  8
TEXT
100
AcDbLine
 10
96.63041885793203
 20
42.65982914566992
 30
0.0
 11
98.02976529598231
 21
42.98275524675846
 31
0.0
  0
LINE
  5
17E
330
75
100
AcDbEntity
  8
TEXT
100
AcDbLine
 10
98.02976529598231
 20
42.98275524675846
 30
0.0
 11
98.99854359924788
 21
43.6286074489355
 31
0.0
  0
LINE
  5
17F
330
75
100
AcDbEntity
  8
TEXT
100
AcDbLine
 10
98.99854359924788
 20
43.6286074489355
 30
0.0
 11
99.53675376772874
 21
44.4897437185049
 31
0.0
  0
LINE
  5
180
330
75
100
AcDbEntity
  8
TEXT
100
AcDbLine
 10
99.53675376772874
 20
44.4897437185049
 30
0.0
 11
99.64439580142492
 21
44.70502778589724
 31
0.0
  0
LINE
  5
181
330
75
100
AcDbEntity
  8
TEXT
100
AcDbLine
 10
99.64439580142492
 20
44.70502778589724
 30
0.0
 11
99.7520378351211
 21
45.13559592068195
 31
0.0
  0
LINE
  5
182
330
75
100
AcDbEntity
  8
TEXT
100
AcDbLine
 10
99.7520378351211
 20
45.13559592068195
 30
0.0
 11
99.7520378351211
 21
45.67380608916282
 31
0.0
  0
LINE
  5
183
330
75
100
AcDbEntity
  8
TEXT
100
AcDbLine
 10
99.7520378351211
 20
45.67380608916282
 30
0.0
 11
99.85967986881727
 21
46.31965829133987
 31
0.0
  0
LINE
  5
184
330
75
100
AcDbEntity
  8
TEXT
100
AcDbLine
 10
99.85967986881727
 20
46.31965829133987
 30
0.0
 11
99.96732190251345
 21
47.07315252721309
 31
0.0
  0
LINE
  5
185
330
75
100
AcDbEntity
  8
TEXT
100
AcDbLine
 10
99.96732190251345
 20
47.07315252721309
 30
0.0
 11
99.96732190251345
 21
47.93428879678248
 31
0.0
  0
LINE
  5
186
330
75
100
AcDbEntity
  8
TEXT
100
AcDbLine
 10
99.96732190251345
 20
47.93428879678248
 30
0.0
 11
100.0749639362096
 21
48.90306710004806
 31
0.0
  0
LINE
  5
187
330
75
100
AcDbEntity
  8
TEXT
100
AcDbLine
 10
100.0749639362096
 20
48.90306710004806
 30
0.0
 11
100.0749639362096
 21
49.9794874370098
 31
0.0
  0
LINE
  5
188
330
75
100
AcDbEntity
  8
TEXT
100
AcDbLine
 10
100.0749639362096
 20
49.9794874370098
 30
0.0
 11
100.1826059699058
 21
51.16354980766772
 31
0.0
  0
LINE
  5
189
330
75
100
AcDbEntity
  8
TEXT
100
AcDbLine
 10
100.1826059699058
 20
51.16354980766772
 30
0.0
 11
100.1826059699058
 21
53.85460065007209
 31
0.0
  0
LINE
  5
18A
330
75
100
AcDbEntity
  8
TEXT
100
AcDbLine
 10
100.1826059699058
 20
53.85460065007209
 30
0.0
 11
100.290248003602
 21
55.36158912181853
 31
0.0
  0
LINE
  5
18B
330
75
100
AcDbEntity
  8
TEXT
100
AcDbLine
 10
100.290248003602
 20
55.36158912181853
 30
0.0
 11
100.290248003602
 21
84.42493821978569
 31
0.0
  0
LINE
  5
18C
330
75
100
AcDbEntity
  8
TEXT
100
AcDbLine
 10
100.290248003602
 20
84.42493821978569
 30
0.0
 11
100.1826059699058
 21
85.93192669153213
 31
0.0
  0
LINE
  5
18D
330
75
100
AcDbEntity
  8
TEXT
100
AcDbLine
 10
100.1826059699058
 20
85.93192669153213
 30
0.0
 11
100.1826059699058
 21
90.02232397198676
 31
0.0
  0
LINE
  5
18E
330
75
100
AcDbEntity
  8
TEXT
100
AcDbLine
 10
100.1826059699058
 20
90.02232397198676
 30
0.0
 11
100.0749639362096
 21
91.09874430894851
 31
0.0
  0
LINE
  5
18F
330
75
100
AcDbEntity
  8
TEXT
100
AcDbLine
 10
100.0749639362096
 20
91.09874430894851
 30
0.0
 11
100.0749639362096
 21
92.06752261221408
 31
0.0
  0
LINE
  5
190
330
75
100
AcDbEntity
  8
TEXT
100
AcDbLine
 10
100.0749639362096
 20
92.06752261221408
 30
0.0
 11
99.96732190251345
 21
92.92865888178347
 31
0.0
  0
LINE
  5
191
330
75
100
AcDbEntity
  8
TEXT
100
AcDbLine
 10
99.96732190251345
 20
92.92865888178347
 30
0.0
 11
99.96732190251345
 21
93.6821531176567
 31
0.0
  0
LINE
  5
192
330
75
100
AcDbEntity
  8
TEXT
100
AcDbLine
 10
99.96732190251345
 20
93.6821531176567
 30
0.0
 11
99.85967986881727
 21
94.32800531983374
 31
0.0
  0
LINE
  5
193
330
75
100
AcDbEntity
  8
TEXT
100
AcDbLine
 10
99.85967986881727
 20
94.32800531983374
 30
0.0
 11
99.7520378351211
 21
94.86621548831463
 31
0.0
  0
LINE
  5
194
330
75
100
AcDbEntity
  8
TEXT
100
AcDbLine
 10
99.7520378351211
 20
94.86621548831463
 30
0.0
 11
99.7520378351211
 21
95.18914158940315
 31
0.0
  0
LINE
  5
195
330
75
100
AcDbEntity
  8
TEXT
100
AcDbLine
 10
99.7520378351211
 20
95.18914158940315
 30
0.0
 11
99.64439580142492
 21
95.51206769049167
 31
0.0
  0
LINE
  5
196
330
75
100
AcDbEntity
  8
TEXT
100
AcDbLine
 10
99.64439580142492
 20
95.51206769049167
 30
0.0
 11
99.10618563294406
 21
96.2655619263649
 31
0.0
  0
LINE
  5
197
330
75
100
AcDbEntity
  8
TEXT
100
AcDbLine
 10
99.10618563294406
 20
96.2655619263649
 30
0.0
 11
98.35269139707083
 21
96.80377209484577
 31
0.0
  0
LINE
  5
198
330
75
100
AcDbEntity
  8
TEXT
100
AcDbLine
 10
98.35269139707083
 20
96.80377209484577
 30
0.0
 11
97.1686290264129
 21
97.12669819593429
 31
0.0
  0
LINE
  5
199
330
75
100
AcDbEntity
  8
TEXT
100
AcDbLine
 10
97.1686290264129
 20
97.12669819593429
 30
0.0
 11
95.66164055466646
 21
97.23434022963047
 31
0.0
  0
LINE
  5
19A
330
75
100
AcDbEntity
  8
TEXT
100
AcDbLine
 10
95.66164055466646
 20
97.23434022963047
 30
0.0
 11
92.32473751008509
 21
97.23434022963047
 31
0.0
  0
LINE
  5
19B
330
75
100
AcDbEntity
  8
TEXT
100
AcDbLine
 10
92.32473751008509
 20
97.23434022963047
 30
0.0
 11
92.32473751008509
 21
100.4253910720348
 31
0.0
  0
LINE
  5
19C
330
75
100
AcDbEntity
  8
TEXT
100
AcDbLine
 10
92.32473751008509
 20
100.4253910720348
 30
0.0
 11
99.10618563294406
 21
100.2101070046425
 31
0.0
  0
LINE
  5
19D
330
75
100
AcDbEntity
  8
TEXT
100
AcDbLine
 10
99.10618563294406
 20
100.2101070046425
 30
0.0
 11
105.887633755803
 21
100.1024649709463
 31
0.0
  0
LINE
  5
19E
330
75
100
AcDbEntity
  8
TEXT
100
AcDbLine
 10
105.887633755803
 20
100.1024649709463
 30
0.0
 11
108.5786845982074
 21
100.1024649709463
 31
0.0
  0
LINE
  5
19F
330
75
100
AcDbEntity
  8
TEXT
100
AcDbLine
 10
108.5786845982074
 20
100.1024649709463
 30
0.0
 11
111.1620934069156
 21
100.2101070046425
 31
0.0
  0
LINE
  5
1A0
330
75
100
AcDbEntity
  8
TEXT
100
AcDbLine
 10
111.1620934069156
 20
100.2101070046425
 30
0.0
 11
113.6378601819276
 21
100.3177490383386
 31
0.0
  0
LINE
  5
1A1
330
75
100
AcDbEntity
  8
TEXT
100
AcDbLine
 10
113.6378601819276
 20
100.3177490383386
 30
0.0
 11
116.0059849232434
 21
100.4253910720348
 31
0.0
  0
LINE
  5
1A2
330
75
100
AcDbEntity
  8
TEXT
100
AcDbLine
 10
116.0059849232434
 20
100.4253910720348
 30
0.0
 11
116.0059849232434
 21
97.23434022963047
 31
0.0
  0
LINE
  5
1A3
330
75
100
AcDbEntity
  8
TEXT
100
AcDbLine
 10
116.0059849232434
 20
97.23434022963047
 30
0.0
 11
111.4850195080041
 21
97.23434022963047
 31
0.0
  0
LINE
  5
1A4
330
75
100
AcDbEntity
  8
TEXT
100
AcDbLine
 10
111.4850195080041
 20
97.23434022963047
 30
0.0
 11
110.4085991710423
 21
97.01905616223811
 31
0.0
  0
LINE
  5
1A5
330
75
100
AcDbEntity
  8
TEXT
100
AcDbLine
 10
110.4085991710423
 20
97.01905616223811
 30
0.0
 11
109.6551049351691
 21
96.80377209484577
 31
0.0
  0
LINE
  5
1A6
330
75
100
AcDbEntity
  8
TEXT
100
AcDbLine
 10
109.6551049351691
 20
96.80377209484577
 30
0.0
 11
109.1168947666883
 21
96.48084599375724
 31
0.0
  0
LINE
  5
1A7
330
75
100
AcDbEntity
  8
TEXT
100
AcDbLine
 10
109.1168947666883
 20
96.48084599375724
 30
0.0
 11
108.7939686655997
 21
96.05027785897256
 31
0.0
  0
LINE
  5
1A8
330
75
100
AcDbEntity
  8
TEXT
100
AcDbLine
 10
108.7939686655997
 20
96.05027785897256
 30
0.0
 11
108.5786845982074
 21
95.18914158940315
 31
0.0
  0
LINE
  5
1A9
330
75
100
AcDbEntity
  8
TEXT
100
AcDbLine
 10
108.5786845982074
 20
95.18914158940315
 30
0.0
 11
108.3634005308151
 21
94.22036328613756
 31
0.0
  0
LINE
  5
1AA
330
75
100
AcDbEntity
  8
TEXT
100
AcDbLine
 10
108.3634005308151
 20
94.22036328613756
 30
0.0
 11
108.1481164634227
 21
91.63695447742938
 31
0.0
  0
LINE
  5
1AB
330
75
100
AcDbEntity
  8
TEXT
100
AcDbLine
 10
108.1481164634227
 20
91.63695447742938
 30
0.0
 11
108.1481164634227
 21
86.57777889370917
 31
0.0
  0
LINE
  5
1AC
330
75
100
AcDbEntity
  8
TEXT
100
AcDbLine
 10
108.1481164634227
 20
86.57777889370917
 30
0.0
 11
108.0404744297265
 21
84.53258025348185
 31
0.0
  0
LINE
  5
1AD
330
75
100
AcDbEntity
  8
TEXT
100
AcDbLine
 10
108.0404744297265
 20
84.53258025348185
 30
0.0
 11
108.0404744297265
 21
55.03866302073001
 31
0.0
  0
LINE
  5
1AE
330
75
100
AcDbEntity
  8
TEXT
100
AcDbLine
 10
108.0404744297265
 20
55.03866302073001
 30
0.0
 11
108.1481164634227
 21
53.4240325152874
 31
0.0
  0
LINE
  5
1AF
330
75
100
AcDbEntity
  8
TEXT
100
AcDbLine
 10
108.1481164634227
 20
53.4240325152874
 30
0.0
 11
108.1481164634227
 21
50.73298167288303
 31
0.0
  0
LINE
  5
1B0
330
75
100
AcDbEntity
  8
TEXT
100
AcDbLine
 10
108.1481164634227
 20
50.73298167288303
 30
0.0
 11
108.2557584971189
 21
49.54891930222511
 31
0.0
  0
LINE
  5
1B1
330
75
100
AcDbEntity
  8
TEXT
100
AcDbLine
 10
108.2557584971189
 20
49.54891930222511
 30
0.0
 11
108.2557584971189
 21
48.47249896526336
 31
0.0
  0
LINE
  5
1B2
330
75
100
AcDbEntity
  8
TEXT
100
AcDbLine
 10
108.2557584971189
 20
48.47249896526336
 30
0.0
 11
108.3634005308151
 21
47.50372066199779
 31
0.0
  0
LINE
  5
1B3
330
75
100
AcDbEntity
  8
TEXT
100
AcDbLine
 10
108.3634005308151
 20
47.50372066199779
 30
0.0
 11
108.3634005308151
 21
46.64258439242839
 31
0.0
  0
LINE
  5
1B4
330
75
100
AcDbEntity
  8
TEXT
100
AcDbLine
 10
108.3634005308151
 20
46.64258439242839
 30
0.0
 11
108.4710425645112
 21
45.99673219025134
 31
0.0
  0
LINE
  5
1B5
330
75
100
AcDbEntity
  8
TEXT
100
AcDbLine
 10
108.4710425645112
 20
45.99673219025134
 30
0.0
 11
108.4710425645112
 21
45.35087998807429
 31
0.0
  0
LINE
  5
1B6
330
75
100
AcDbEntity
  8
TEXT
100
AcDbLine
 10
108.4710425645112
 20
45.35087998807429
 30
0.0
 11
108.5786845982074
 21
44.81266981959342
 31
0.0
  0
LINE
  5
1B7
330
75
100
AcDbEntity
  8
TEXT
100
AcDbLine
 10
108.5786845982074
 20
44.81266981959342
 30
0.0
 11
108.7939686655997
 21
44.16681761741638
 31
0.0
  0
LINE
  5
1B8
330
75
100
AcDbEntity
  8
TEXT
100
AcDbLine
 10
108.7939686655997
 20
44.16681761741638
 30
0.0
 11
109.3321788340806
 21
43.52096541523933
 31
0.0
  0
LINE
  5
1B9
330
75
100
AcDbEntity
  8
TEXT
100
AcDbLine
 10
109.3321788340806
 20
43.52096541523933
 30
0.0
 11
110.19331510365
 21
42.98275524675846
 31
0.0
  0
LINE
  5
1BA
330
75
100
AcDbEntity
  8
TEXT
100
AcDbLine
 10
110.19331510365
 20
42.98275524675846
 30
0.0
 11
111.5926615417003
 21
42.65982914566992
 31
0.0
  0
LINE
  5
1BB
330
75
100
AcDbEntity
  8
TEXT
100
AcDbLine
 10
111.5926615417003
 20
42.65982914566992
 30
0.0
 11
113.3149340808391
 21
42.55218711197375
 31
0.0
  0
LINE
  5
1BC
330
75
100
AcDbEntity
  8
TEXT
100
AcDbLine
 10
113.3149340808391
 20
42.55218711197375
 30
0.0
 11
116.0059849232434
 21
42.55218711197375
 31
0.0
  0
LINE
  5
1BD
330
75
100
AcDbEntity
  8
TEXT
100
AcDbLine
 10
116.0059849232434
 20
42.55218711197375
 30
0.0
 11
116.0059849232434
 21
39.36113626956939
 31
0.0
  0
LINE
  5
1BE
330
75
100
AcDbEntity
  8
TEXT
100
AcDbLine
 10
116.0059849232434
 20
39.36113626956939
 30
0.0
 11
113.4225761145353
 21
39.46877830326556
 31
0.0
  0
LINE
  5
1BF
330
75
100
AcDbEntity
  8
TEXT
100
AcDbLine
 10
113.4225761145353
 20
39.46877830326556
 30
0.0
 11
110.7315252721309
 21
39.57642033696174
 31
0.0
  0
LINE
  5
1C0
330
75
100
AcDbEntity
  8
TEXT
100
AcDbLine
 10
110.7315252721309
 20
39.57642033696174
 30
0.0
 11
107.8251903623342
 21
39.68406237065792
 31
0.0
  0
LINE
  5
1C1
330
75
100
AcDbEntity
  8
TEXT
100
AcDbLine
 10
107.8251903623342
 20
39.68406237065792
 30
0.0
 11
101.4743103742599
 21
39.68406237065792
 31
0.0
  0
LINE
  5
1C2
330
75
100
AcDbEntity
  8
TEXT
100
AcDbLine
 10
101.4743103742599
 20
39.68406237065792
 30
0.0
 11
98.24504936337465
 21
39.57642033696174
 31
0.0
  0
LINE
  5
1C3
330
75
100
AcDbEntity
  8
TEXT
100
AcDbLine
 10
98.24504936337465
 20
39.57642033696174
 30
0.0
 11
95.23107241988181
 21
39.46877830326556
 31
0.0
  0
LINE
  5
1C4
330
75
100
AcDbEntity
  8
TEXT
100
AcDbLine
 10
95.23107241988181
 20
39.46877830326556
 30
0.0
 11
92.32473751008509
 21
39.36113626956939
 31
0.0
  0
LINE
  5
1C5
330
75
100
AcDbEntity
  8
TEXT
100
AcDbLine
 10
92.32473751008509
 20
39.36113626956939
 30
0.0
 11
92.32473751008509
 21
42.55218711197375
 31
0.0
  0
LINE
  5
1C6
330
75
100
AcDbEntity
  8
TEXT
100
AcDbLine
 10
181.2370573431253
 20
90.77581820785999
 30
0.0
 11
168.9658655017614
 21
64.72644605338572
 31
0.0
  0
LINE
  5
1C7
330
75
100
AcDbEntity
  8
TEXT
100
AcDbLine
 10
168.9658655017614
 20
64.72644605338572
 30
0.0
 11
167.2435929626226
 21
61.06661690771579
 31
0.0
  0
LINE
  5
1C8
330
75
100
AcDbEntity
  8
TEXT
100
AcDbLine
 10
167.2435929626226
 20
61.06661690771579
 30
0.0
 11
165.6289624571799
 21
57.51442979574203
 31
0.0
  0
LINE
  5
1C9
330
75
100
AcDbEntity
  8
TEXT
100
AcDbLine
 10
165.6289624571799
 20
57.51442979574203
 30
0.0
 11
164.1219739854335
 21
54.17752675116062
 31
0.0
  0
LINE
  5
1CA
330
75
100
AcDbEntity
  8
TEXT
100
AcDbLine
 10
164.1219739854335
 20
54.17752675116062
 30
0.0
 11
162.614985513687
 21
50.94826574027538
 31
0.0
  0
LINE
  5
1CB
330
75
100
AcDbEntity
  8
TEXT
100
AcDbLine
 10
162.614985513687
 20
50.94826574027538
 30
0.0
 11
161.323281109333
 21
47.71900472939014
 31
0.0
  0
LINE
  5
1CC
330
75
100
AcDbEntity
  8
TEXT
100
AcDbLine
 10
161.323281109333
 20
47.71900472939014
 30
0.0
 11
160.0315767049788
 21
44.70502778589724
 31
0.0
  0
LINE
  5
1CD
330
75
100
AcDbEntity
  8
TEXT
100
AcDbLine
 10
160.0315767049788
 20
44.70502778589724
 30
0.0
 11
158.7398723006248
 21
41.79869287610054
 31
0.0
  0
LINE
  5
1CE
330
75
100
AcDbEntity
  8
TEXT
100
AcDbLine
 10
158.7398723006248
 20
41.79869287610054
 30
0.0
 11
157.663451963663
 21
39.0
 31
0.0
  0
LINE
  5
1CF
330
75
100
AcDbEntity
  8
TEXT
100
AcDbLine
 10
157.663451963663
 20
39.0
 30
0.0
 11
155.9411794245242
 21
39.0
 31
0.0
  0
LINE
  5
1D0
330
75
100
AcDbEntity
  8
TEXT
100
AcDbLine
 10
155.9411794245242
 20
39.0
 30
0.0
 11
155.4029692560433
 21
40.07642033696174
 31
0.0
  0
LINE
  5
1D1
330
75
100
AcDbEntity
  8
TEXT
100
AcDbLine
 10
155.4029692560433
 20
40.07642033696174
 30
0.0
 11
154.7571170538663
 21
41.58340880870818
 31
0.0
  0
LINE
  5
1D2
330
75
100
AcDbEntity
  8
TEXT
100
AcDbLine
 10
154.7571170538663
 20
41.58340880870818
 30
0.0
 11
153.8959807842969
 21
43.52096541523933
 31
0.0
  0
LINE
  5
1D3
330
75
100
AcDbEntity
  8
TEXT
100
AcDbLine
 10
153.8959807842969
 20
43.52096541523933
 30
0.0
 11
152.9272024810313
 21
45.67380608916282
 31
0.0
  0
LINE
  5
1D4
330
75
100
AcDbEntity
  8
TEXT
100
AcDbLine
 10
152.9272024810313
 20
45.67380608916282
 30
0.0
 11
151.7431401103734
 21
48.25721489787102
 31
0.0
  0
LINE
  5
1D5
330
75
100
AcDbEntity
  8
TEXT
100
AcDbLine
 10
151.7431401103734
 20
48.25721489787102
 30
0.0
 11
150.3437936723231
 21
51.2711918413639
 31
0.0
  0
LINE
  5
1D6
330
75
100
AcDbEntity
  8
TEXT
100
AcDbLine
 10
150.3437936723231
 20
51.2711918413639
 30
0.0
 11
148.8368052005767
 21
54.60809488594531
 31
0.0
  0
LINE
  5
1D7
330
75
100
AcDbEntity
  8
TEXT
100
AcDbLine
 10
148.8368052005767
 20
54.60809488594531
 30
0.0
 11
147.1145326614379
 21
58.26792403161525
 31
0.0
  0
LINE
  5
1D8
330
75
100
AcDbEntity
  8
TEXT
100
AcDbLine
 10
147.1145326614379
 20
58.26792403161525
 30
0.0
 11
132.367574045062
 21
89.59175583720208
 31
0.0
  0
LINE
  5
1D9
330
75
100
AcDbEntity
  8
TEXT
100
AcDbLine
 10
132.367574045062
 20
89.59175583720208
 30
0.0
 11
132.367574045062
 21
54.28516878485679
 31
0.0
  0
LINE
  5
1DA
330
75
100
AcDbEntity
  8
TEXT
100
AcDbLine
 10
132.367574045062
 20
54.28516878485679
 30
0.0
 11
132.4752160787581
 21
51.91704404354094
 31
0.0
  0
LINE
  5
1DB
330
75
100
AcDbEntity
  8
TEXT
100
AcDbLine
 10
132.4752160787581
 20
51.91704404354094
 30
0.0
 11
132.4752160787581
 21
49.87184540331363
 31
0.0
  0
LINE
  5
1DC
330
75
100
AcDbEntity
  8
TEXT
100
AcDbLine
 10
132.4752160787581
 20
49.87184540331363
 30
0.0
 11
132.5828581124543
 21
48.04193083047866
 31
0.0
  0
LINE
  5
1DD
330
75
100
AcDbEntity
  8
TEXT
100
AcDbLine
 10
132.5828581124543
 20
48.04193083047866
 30
0.0
 11
132.6905001461505
 21
46.64258439242839
 31
0.0
  0
LINE
  5
1DE
330
75
100
AcDbEntity
  8
TEXT
100
AcDbLine
 10
132.6905001461505
 20
46.64258439242839
 30
0.0
 11
132.9057842135429
 21
45.45852202177047
 31
0.0
  0
LINE
  5
1DF
330
75
100
AcDbEntity
  8
TEXT
100
AcDbLine
 10
132.9057842135429
 20
45.45852202177047
 30
0.0
 11
133.013426247239
 21
44.59738575220107
 31
0.0
  0
LINE
  5
1E0
330
75
100
AcDbEntity
  8
TEXT
100
AcDbLine
 10
133.013426247239
 20
44.59738575220107
 30
0.0
 11
133.2287103146314
 21
44.0591755837202
 31
0.0
  0
LINE
  5
1E1
330
75
100
AcDbEntity
  8
TEXT
100
AcDbLine
 10
133.2287103146314
 20
44.0591755837202
 30
0.0
 11
133.5516364157199
 21
43.73624948263167
 31
0.0
  0
LINE
  5
1E2
330
75
100
AcDbEntity
  8
TEXT
100
AcDbLine
 10
133.5516364157199
 20
43.73624948263167
 30
0.0
 11
134.4127726852893
 21
43.09039728045463
 31
0.0
  0
LINE
  5
1E3
330
75
100
AcDbEntity
  8
TEXT
100
AcDbLine
 10
134.4127726852893
 20
43.09039728045463
 30
0.0
 11
135.0586248874664
 21
42.87511321306229
 31
0.0
  0
LINE
  5
1E4
330
75
100
AcDbEntity
  8
TEXT
100
AcDbLine
 10
135.0586248874664
 20
42.87511321306229
 30
0.0
 11
135.8121191233396
 21
42.7674711793661
 31
0.0
  0
LINE
  5
1E5
330
75
100
AcDbEntity
  8
TEXT
100
AcDbLine
 10
135.8121191233396
 20
42.7674711793661
 30
0.0
 11
136.673255392909
 21
42.65982914566992
 31
0.0
  0
LINE
  5
1E6
330
75
100
AcDbEntity
  8
TEXT
100
AcDbLine
 10
136.673255392909
 20
42.65982914566992
 30
0.0
 11
137.6420336961745
 21
42.55218711197375
 31
0.0
  0
LINE
  5
1E7
330
75
100
AcDbEntity
  8
TEXT
100
AcDbLine
 10
137.6420336961745
 20
42.55218711197375
 30
0.0
 11
140.3330845385789
 21
42.55218711197375
 31
0.0
  0
LINE
  5
1E8
330
75
100
AcDbEntity
  8
TEXT
100
AcDbLine
 10
140.3330845385789
 20
42.55218711197375
 30
0.0
 11
140.3330845385789
 21
39.36113626956939
 31
0.0
  0
LINE
  5
1E9
330
75
100
AcDbEntity
  8
TEXT
100
AcDbLine
 10
140.3330845385789
 20
39.36113626956939
 30
0.0
 11
137.6420336961745
 21
39.46877830326556
 31
0.0
  0
LINE
  5
1EA
330
75
100
AcDbEntity
  8
TEXT
100
AcDbLine
 10
137.6420336961745
 20
39.46877830326556
 30
0.0
 11
135.1662669211625
 21
39.57642033696174
 31
0.0
  0
LINE
  5
1EB
330
75
100
AcDbEntity
  8
TEXT
100
AcDbLine
 10
135.1662669211625
 20
39.57642033696174
 30
0.0
 11
132.9057842135429
 21
39.68406237065792
 31
0.0
  0
LINE
  5
1EC
330
75
100
AcDbEntity
  8
TEXT
100
AcDbLine
 10
132.9057842135429
 20
39.68406237065792
 30
0.0
 11
128.2771767646073
 21
39.68406237065792
 31
0.0
  0
LINE
  5
1ED
330
75
100
AcDbEntity
  8
TEXT
100
AcDbLine
 10
128.2771767646073
 20
39.68406237065792
 30
0.0
 11
127.0931143939494
 21
39.57642033696174
 31
0.0
  0
LINE
  5
1EE
330
75
100
AcDbEntity
  8
TEXT
100
AcDbLine
 10
127.0931143939494
 20
39.57642033696174
 30
0.0
 11
125.6937679558991
 21
39.57642033696174
 31
0.0
  0
LINE
  5
1EF
330
75
100
AcDbEntity
  8
TEXT
100
AcDbLine
 10
125.6937679558991
 20
39.57642033696174
 30
0.0
 11
124.1867794841527
 21
39.46877830326556
 31
0.0
  0
LINE
  5
1F0
330
75
100
AcDbEntity
  8
TEXT
100
AcDbLine
 10
124.1867794841527
 20
39.46877830326556
 30
0.0
 11
122.4645069450139
 21
39.46877830326556
 31
0.0
  0
LINE
  5
1F1
330
75
100
AcDbEntity
  8
TEXT
100
AcDbLine
 10
122.4645069450139
 20
39.46877830326556
 30
0.0
 11
120.6345923721789
 21
39.36113626956939
 31
0.0
  0
LINE
  5
1F2
330
75
100
AcDbEntity
  8
TEXT
100
AcDbLine
 10
120.6345923721789
 20
39.36113626956939
 30
0.0
 11
120.6345923721789
 21
42.55218711197375
 31
0.0
  0
LINE
  5
1F3
330
75
100
AcDbEntity
  8
TEXT
100
AcDbLine
 10
120.6345923721789
 20
42.55218711197375
 30
0.0
 11
124.6173476189374
 21
42.55218711197375
 31
0.0
  0
LINE
  5
1F4
330
75
100
AcDbEntity
  8
TEXT
100
AcDbLine
 10
124.6173476189374
 20
42.55218711197375
 30
0.0
 11
125.586125922203
 21
42.7674711793661
 31
0.0
  0
LINE
  5
1F5
330
75
100
AcDbEntity
  8
TEXT
100
AcDbLine
 10
125.586125922203
 20
42.7674711793661
 30
0.0
 11
126.3396201580762
 21
42.98275524675846
 31
0.0
  0
LINE
  5
1F6
330
75
100
AcDbEntity
  8
TEXT
100
AcDbLine
 10
126.3396201580762
 20
42.98275524675846
 30
0.0
 11
126.9854723602533
 21
43.30568134784697
 31
0.0
  0
LINE
  5
1F7
330
75
100
AcDbEntity
  8
TEXT
100
AcDbLine
 10
126.9854723602533
 20
43.30568134784697
 30
0.0
 11
127.3083984613418
 21
43.84389151632785
 31
0.0
  0
LINE
  5
1F8
330
75
100
AcDbEntity
  8
TEXT
100
AcDbLine
 10
127.3083984613418
 20
43.84389151632785
 30
0.0
 11
127.6313245624303
 21
44.4897437185049
 31
0.0
  0
LINE
  5
1F9
330
75
100
AcDbEntity
  8
TEXT
100
AcDbLine
 10
127.6313245624303
 20
44.4897437185049
 30
0.0
 11
127.9542506635188
 21
45.24323795437812
 31
0.0
  0
LINE
  5
1FA
330
75
100
AcDbEntity
  8
TEXT
100
AcDbLine
 10
127.9542506635188
 20
45.24323795437812
 30
0.0
 11
128.061892697215
 21
46.2120162576437
 31
0.0
  0
LINE
  5
1FB
330
75
100
AcDbEntity
  8
TEXT
100
AcDbLine
 10
128.061892697215
 20
46.2120162576437
 30
0.0
 11
128.2771767646073
 21
49.22599320113658
 31
0.0
  0
LINE
  5
1FC
330
75
100
AcDbEntity
  8
TEXT
100
AcDbLine
 10
128.2771767646073
 20
49.22599320113658
 30
0.0
 11
128.4924608319997
 21
52.34761217832565
 31
0.0
  0
LINE
  5
1FD
330
75
100
AcDbEntity
  8
TEXT
100
AcDbLine
 10
128.4924608319997
 20
52.34761217832565
 30
0.0
 11
128.6001028656959
 21
55.57687318921089
 31
0.0
  0
LINE
  5
1FE
330
75
100
AcDbEntity
  8
TEXT
100
AcDbLine
 10
128.6001028656959
 20
55.57687318921089
 30
0.0
 11
128.6001028656959
 21
88.51533550024033
 31
0.0
  0
LINE
  5
1FF
330
75
100
AcDbEntity
  8
TEXT
100
AcDbLine
 10
128.6001028656959
 20
88.51533550024033
 30
0.0
 11
128.4924608319997
 21
90.02232397198676
 31
0.0
  0
LINE
  5
200
330
75
100
AcDbEntity
  8
TEXT
100
AcDbLine
 10
128.4924608319997
 20
90.02232397198676
 30
0.0
 11
128.4924608319997
 21
91.31402837634086
 31
0.0
  0
LINE
  5
201
330
75
100
AcDbEntity
  8
TEXT
100
AcDbLine
 10
128.4924608319997
 20
91.31402837634086
 30
0.0
 11
128.3848187983035
 21
92.49809074699879
 31
0.0
  0
LINE
  5
202
330
75
100
AcDbEntity
  8
TEXT
100
AcDbLine
 10
128.3848187983035
 20
92.49809074699879
 30
0.0
 11
128.2771767646073
 21
93.46686905026436
 31
0.0
  0
LINE
  5
203
330
75
100
AcDbEntity
  8
TEXT
100
AcDbLine
 10
128.2771767646073
 20
93.46686905026436
 30
0.0
 11
128.2771767646073
 21
94.32800531983374
 31
0.0
  0
LINE
  5
204
330
75
100
AcDbEntity
  8
TEXT
100
AcDbLine
 10
128.2771767646073
 20
94.32800531983374
 30
0.0
 11
128.061892697215
 21
94.97385752201081
 31
0.0
  0
LINE
  5
205
330
75
100
AcDbEntity
  8
TEXT
100
AcDbLine
 10
128.061892697215
 20
94.97385752201081
 30
0.0
 11
127.8466086298226
 21
95.51206769049167
 31
0.0
  0
LINE
  5
206
330
75
100
AcDbEntity
  8
TEXT
100
AcDbLine
 10
127.8466086298226
 20
95.51206769049167
 30
0.0
 11
127.5236825287341
 21
96.05027785897256
 31
0.0
  0
LINE
  5
207
330
75
100
AcDbEntity
  8
TEXT
100
AcDbLine
 10
127.5236825287341
 20
96.05027785897256
 30
0.0
 11
126.9854723602533
 21
96.48084599375724
 31
0.0
  0
LINE
  5
208
330
75
100
AcDbEntity
  8
TEXT
100
AcDbLine
 10
126.9854723602533
 20
96.48084599375724
 30
0.0
 11
126.3396201580762
 21
96.80377209484577
 31
0.0
  0
LINE
  5
209
330
75
100
AcDbEntity
  8
TEXT
100
AcDbLine
 10
126.3396201580762
 20
96.80377209484577
 30
0.0
 11
125.4784838885068
 21
97.01905616223811
 31
0.0
  0
LINE
  5
20A
330
75
100
AcDbEntity
  8
TEXT
100
AcDbLine
 10
125.4784838885068
 20
97.01905616223811
 30
0.0
 11
124.2944215178489
 21
97.12669819593429
 31
0.0
  0
LINE
  5
20B
330
75
100
AcDbEntity
  8
TEXT
100
AcDbLine
 10
124.2944215178489
 20
97.12669819593429
 30
0.0
 11
122.7874330461024
 21
97.23434022963047
 31
0.0
  0
LINE
  5
20C
330
75
100
AcDbEntity
  8
TEXT
100
AcDbLine
 10
122.7874330461024
 20
97.23434022963047
 30
0.0
 11
120.6345923721789
 21
97.23434022963047
 31
0.0
  0
LINE
  5
20D
330
75
100
AcDbEntity
  8
TEXT
100
AcDbLine
 10
120.6345923721789
 20
97.23434022963047
 30
0.0
 11
120.6345923721789
 21
100.4253910720348
 31
0.0
  0
LINE
  5
20E
330
75
100
AcDbEntity
  8
TEXT
100
AcDbLine
 10
120.6345923721789
 20
100.4253910720348
 30
0.0
 11
122.3568649113177
 21
100.3177490383386
 31
0.0
  0
LINE
  5
20F
330
75
100
AcDbEntity
  8
TEXT
100
AcDbLine
 10
122.3568649113177
 20
100.3177490383386
 30
0.0
 11
123.8638533830642
 21
100.3177490383386
 31
0.0
  0
LINE
  5
210
330
75
100
AcDbEntity
  8
TEXT
100
AcDbLine
 10
123.8638533830642
 20
100.3177490383386
 30
0.0
 11
125.2631998211145
 21
100.2101070046425
 31
0.0
  0
LINE
  5
211
330
75
100
AcDbEntity
  8
TEXT
100
AcDbLine
 10
125.2631998211145
 20
100.2101070046425
 30
0.0
 11
126.4472621917724
 21
100.2101070046425
 31
0.0
  0
LINE
  5
212
330
75
100
AcDbEntity
  8
TEXT
100
AcDbLine
 10
126.4472621917724
 20
100.2101070046425
 30
0.0
 11
127.5236825287341
 21
100.1024649709463
 31
0.0
  0
LINE
  5
213
330
75
100
AcDbEntity
  8
TEXT
100
AcDbLine
 10
127.5236825287341
 20
100.1024649709463
 30
0.0
 11
130.9682276070117
 21
100.1024649709463
 31
0.0
  0
LINE
  5
214
330
75
100
AcDbEntity
  8
TEXT
100
AcDbLine
 10
130.9682276070117
 20
100.1024649709463
 30
0.0
 11
132.4752160787581
 21
100.2101070046425
 31
0.0
  0
LINE
  5
215
330
75
100
AcDbEntity
  8
TEXT
100
AcDbLine
 10
132.4752160787581
 20
100.2101070046425
 30
0.0
 11
134.3051306515931
 21
100.3177490383386
 31
0.0
  0
LINE
  5
216
330
75
100
AcDbEntity
  8
TEXT
100
AcDbLine
 10
134.3051306515931
 20
100.3177490383386
 30
0.0
 11
136.1331864346776
 21
100.4139625006062
 31
0.0
  0
LINE
  5
217
330
75
100
AcDbEntity
  8
TEXT
100
AcDbLine
 10
136.1331864346776
 20
100.4139625006062
 30
0.0
 11
138.9337381005286
 21
94.1127212524414
 31
0.0
  0
LINE
  5
218
330
75
100
AcDbEntity
  8
TEXT
100
AcDbLine
 10
138.9337381005286
 20
94.1127212524414
 30
0.0
 11
141.7324309766292
 21
87.97712533175944
 31
0.0
  0
LINE
  5
219
330
75
100
AcDbEntity
  8
TEXT
100
AcDbLine
 10
141.7324309766292
 20
87.97712533175944
 30
0.0
 11
144.7464079201221
 21
81.51860330998898
 31
0.0
  0
LINE
  5
21A
330
75
100
AcDbEntity
  8
TEXT
100
AcDbLine
 10
144.7464079201221
 20
81.51860330998898
 30
0.0
 11
147.8680268973111
 21
74.84479722082614
 31
0.0
  0
LINE
  5
21B
330
75
100
AcDbEntity
  8
TEXT
100
AcDbLine
 10
147.8680268973111
 20
74.84479722082614
 30
0.0
 11
158.7398723006248
 21
52.02468607723712
 31
0.0
  0
LINE
  5
21C
330
75
100
AcDbEntity
  8
TEXT
100
AcDbLine
 10
158.7398723006248
 20
52.02468607723712
 30
0.0
 11
168.8582234680652
 21
73.12252468168735
 31
0.0
  0
LINE
  5
21D
330
75
100
AcDbEntity
  8
TEXT
100
AcDbLine
 10
168.8582234680652
 20
73.12252468168735
 30
0.0
 11
170.1499278724193
 21
76.02885959148406
 31
0.0
  0
LINE
  5
21E
330
75
100
AcDbEntity
  8
TEXT
100
AcDbLine
 10
170.1499278724193
 20
76.02885959148406
 30
0.0
 11
171.5492743104696
 21
79.04283653497696
 31
0.0
  0
LINE
  5
21F
330
75
100
AcDbEntity
  8
TEXT
100
AcDbLine
 10
171.5492743104696
 20
79.04283653497696
 30
0.0
 11
173.056262782216
 21
82.16445551216601
 31
0.0
  0
LINE
  5
220
330
75
100
AcDbEntity
  8
TEXT
100
AcDbLine
 10
173.056262782216
 20
82.16445551216601
 30
0.0
 11
174.4556092202662
 21
85.39371652305126
 31
0.0
  0
LINE
  5
221
330
75
100
AcDbEntity
  8
TEXT
100
AcDbLine
 10
174.4556092202662
 20
85.39371652305126
 30
0.0
 11
176.0702397257089
 21
88.83826160132883
 31
0.0
  0
LINE
  5
222
330
75
100
AcDbEntity
  8
TEXT
100
AcDbLine
 10
176.0702397257089
 20
88.83826160132883
 30
0.0
 11
177.5772281974553
 21
92.39044871330261
 31
0.0
  0
LINE
  5
223
330
75
100
AcDbEntity
  8
TEXT
100
AcDbLine
 10
177.5772281974553
 20
92.39044871330261
 30
0.0
 11
179.1918587028979
 21
96.05027785897256
 31
0.0
  0
LINE
  5
224
330
75
100
AcDbEntity
  8
TEXT
100
AcDbLine
 10
179.1918587028979
 20
96.05027785897256
 30
0.0
 11
181.131953024215
 21
100.4154900819358
 31
0.0
  0
LINE
  5
225
330
75
100
AcDbEntity
  8
TEXT
100
AcDbLine
 10
181.131953024215
 20
100.4154900819358
 30
0.0
 11
183.2822559833526
 21
100.3177490383386
 31
0.0
  0
LINE
  5
226
330
75
100
AcDbEntity
  8
TEXT
100
AcDbLine
 10
183.2822559833526
 20
100.3177490383386
 30
0.0
 11
185.3274546235799
 21
100.2101070046424
 31
0.0
  0
LINE
  5
227
330
75
100
AcDbEntity
  8
TEXT
100
AcDbLine
 10
185.3274546235799
 20
100.2101070046424
 30
0.0
 11
186.9420851290225
 21
100.1024649709462
 31
0.0
  0
LINE
  5
228
330
75
100
AcDbEntity
  8
TEXT
100
AcDbLine
 10
186.9420851290225
 20
100.1024649709462
 30
0.0
 11
190.4942722409963
 21
100.1024649709462
 31
0.0
  0
LINE
  5
229
330
75
100
AcDbEntity
  8
TEXT
100
AcDbLine
 10
190.4942722409963
 20
100.1024649709462
 30
0.0
 11
191.570692577958
 21
100.2101070046424
 31
0.0
  0
LINE
  5
22A
330
75
100
AcDbEntity
  8
TEXT
100
AcDbLine
 10
191.570692577958
 20
100.2101070046424
 30
0.0
 11
192.7547549486159
 21
100.2101070046424
 31
0.0
  0
LINE
  5
22B
330
75
100
AcDbEntity
  8
TEXT
100
AcDbLine
 10
192.7547549486159
 20
100.2101070046424
 30
0.0
 11
194.04645935297
 21
100.3177490383386
 31
0.0
  0
LINE
  5
22C
330
75
100
AcDbEntity
  8
TEXT
100
AcDbLine
 10
194.04645935297
 20
100.3177490383386
 30
0.0
 11
195.4458057910203
 21
100.3177490383386
 31
0.0
  0
LINE
  5
22D
330
75
100
AcDbEntity
  8
TEXT
100
AcDbLine
 10
195.4458057910203
 20
100.3177490383386
 30
0.0
 11
196.9527942627668
 21
100.4253910720348
 31
0.0
  0
LINE
  5
22E
330
75
100
AcDbEntity
  8
TEXT
100
AcDbLine
 10
196.9527942627668
 20
100.4253910720348
 30
0.0
 11
196.9527942627668
 21
97.23434022963042
 31
0.0
  0
LINE
  5
22F
330
75
100
AcDbEntity
  8
TEXT
100
AcDbLine
 10
196.9527942627668
 20
97.23434022963042
 30
0.0
 11
194.2617434203624
 21
97.23434022963042
 31
0.0
  0
LINE
  5
230
330
75
100
AcDbEntity
  8
TEXT
100
AcDbLine
 10
194.2617434203624
 20
97.23434022963042
 30
0.0
 11
192.6471129149198
 21
97.12669819593424
 31
0.0
  0
LINE
  5
231
330
75
100
AcDbEntity
  8
TEXT
100
AcDbLine
 10
192.6471129149198
 20
97.12669819593424
 30
0.0
 11
191.3554085105657
 21
96.91141412854189
 31
0.0
  0
LINE
  5
232
330
75
100
AcDbEntity
  8
TEXT
100
AcDbLine
 10
191.3554085105657
 20
96.91141412854189
 30
0.0
 11
190.3866302073001
 21
96.48084599375721
 31
0.0
  0
LINE
  5
233
330
75
100
AcDbEntity
  8
TEXT
100
AcDbLine
 10
190.3866302073001
 20
96.48084599375721
 30
0.0
 11
189.8484200388192
 21
95.94263582527633
 31
0.0
  0
LINE
  5
234
330
75
100
AcDbEntity
  8
TEXT
100
AcDbLine
 10
189.8484200388192
 20
95.94263582527633
 30
0.0
 11
189.6331359714269
 21
95.51206769049162
 31
0.0
  0
LINE
  5
235
330
75
100
AcDbEntity
  8
TEXT
100
AcDbLine
 10
189.6331359714269
 20
95.51206769049162
 30
0.0
 11
189.4178519040345
 21
94.86621548831458
 31
0.0
  0
LINE
  5
236
330
75
100
AcDbEntity
  8
TEXT
100
AcDbLine
 10
189.4178519040345
 20
94.86621548831458
 30
0.0
 11
189.3102098703384
 21
94.00507921874519
 31
0.0
  0
LINE
  5
237
330
75
100
AcDbEntity
  8
TEXT
100
AcDbLine
 10
189.3102098703384
 20
94.00507921874519
 30
0.0
 11
189.2025678366422
 21
92.92865888178344
 31
0.0
  0
LINE
  5
238
330
75
100
AcDbEntity
  8
TEXT
100
AcDbLine
 10
189.2025678366422
 20
92.92865888178344
 30
0.0
 11
189.094925802946
 21
91.74459651112551
 31
0.0
  0
LINE
  5
239
330
75
100
AcDbEntity
  8
TEXT
100
AcDbLine
 10
189.094925802946
 20
91.74459651112551
 30
0.0
 11
189.094925802946
 21
90.23760803937907
 31
0.0
  0
LINE
  5
23A
330
75
100
AcDbEntity
  8
TEXT
100
AcDbLine
 10
189.094925802946
 20
90.23760803937907
 30
0.0
 11
188.9872837692498
 21
88.62297753393646
 31
0.0
  0
LINE
  5
23B
330
75
100
AcDbEntity
  8
TEXT
100
AcDbLine
 10
188.9872837692498
 20
88.62297753393646
 30
0.0
 11
188.9872837692498
 21
53.42403251528735
 31
0.0
  0
LINE
  5
23C
330
75
100
AcDbEntity
  8
TEXT
100
AcDbLine
 10
188.9872837692498
 20
53.42403251528735
 30
0.0
 11
189.094925802946
 21
51.27119184136386
 31
0.0
  0
LINE
  5
23D
330
75
100
AcDbEntity
  8
TEXT
100
AcDbLine
 10
189.094925802946
 20
51.27119184136386
 30
0.0
 11
189.094925802946
 21
49.33363523483271
 31
0.0
  0
LINE
  5
23E
330
75
100
AcDbEntity
  8
TEXT
100
AcDbLine
 10
189.094925802946
 20
49.33363523483271
 30
0.0
 11
189.2025678366422
 21
47.71900472939009
 31
0.0
  0
LINE
  5
23F
330
75
100
AcDbEntity
  8
TEXT
100
AcDbLine
 10
189.2025678366422
 20
47.71900472939009
 30
0.0
 11
189.3102098703384
 21
46.427300325036
 31
0.0
  0
LINE
  5
240
330
75
100
AcDbEntity
  8
TEXT
100
AcDbLine
 10
189.3102098703384
 20
46.427300325036
 30
0.0
 11
189.4178519040345
 21
45.35087998807425
 31
0.0
  0
LINE
  5
241
330
75
100
AcDbEntity
  8
TEXT
100
AcDbLine
 10
189.4178519040345
 20
45.35087998807425
 30
0.0
 11
189.6331359714269
 21
44.59738575220103
 31
0.0
  0
LINE
  5
242
330
75
100
AcDbEntity
  8
TEXT
100
AcDbLine
 10
189.6331359714269
 20
44.59738575220103
 30
0.0
 11
189.8484200388192
 21
44.05917558372015
 31
0.0
  0
LINE
  5
243
330
75
100
AcDbEntity
  8
TEXT
100
AcDbLine
 10
189.8484200388192
 20
44.05917558372015
 30
0.0
 11
190.4942722409963
 21
43.41332338154311
 31
0.0
  0
LINE
  5
244
330
75
100
AcDbEntity
  8
TEXT
100
AcDbLine
 10
190.4942722409963
 20
43.41332338154311
 30
0.0
 11
191.4630505442618
 21
42.87511321306223
 31
0.0
  0
LINE
  5
245
330
75
100
AcDbEntity
  8
TEXT
100
AcDbLine
 10
191.4630505442618
 20
42.87511321306223
 30
0.0
 11
192.8623969823121
 21
42.65982914566989
 31
0.0
  0
LINE
  5
246
330
75
100
AcDbEntity
  8
TEXT
100
AcDbLine
 10
192.8623969823121
 20
42.65982914566989
 30
0.0
 11
194.5846695214509
 21
42.55218711197371
 31
0.0
  0
LINE
  5
247
330
75
100
AcDbEntity
  8
TEXT
100
AcDbLine
 10
194.5846695214509
 20
42.55218711197371
 30
0.0
 11
196.9527942627668
 21
42.55218711197371
 31
0.0
  0
LINE
  5
248
330
75
100
AcDbEntity
  8
TEXT
100
AcDbLine
 10
196.9527942627668
 20
42.55218711197371
 30
0.0
 11
196.9527942627668
 21
39.36113626956935
 31
0.0
  0
LINE
  5
249
330
75
100
AcDbEntity
  8
TEXT
100
AcDbLine
 10
196.9527942627668
 20
39.36113626956935
 30
0.0
 11
191.3554085105657
 21
39.5764203369617
 31
0.0
  0
LINE
  5
24A
330
75
100
AcDbEntity
  8
TEXT
100
AcDbLine
 10
191.3554085105657
 20
39.5764203369617
 30
0.0
 11
185.9733068257569
 21
39.68406237065787
 31
0.0
  0
LINE
  5
24B
330
75
100
AcDbEntity
  8
TEXT
100
AcDbLine
 10
185.9733068257569
 20
39.68406237065787
 30
0.0
 11
180.0529949724673
 21
39.57642033696174
 31
0.0
  0
LINE
  5
24C
330
75
100
AcDbEntity
  8
TEXT
100
AcDbLine
 10
180.0529949724673
 20
39.57642033696174
 30
0.0
 11
173.9173990517854
 21
39.36113626956939
 31
0.0
  0
LINE
  5
24D
330
75
100
AcDbEntity
  8
TEXT
100
AcDbLine
 10
173.9173990517854
 20
39.36113626956939
 30
0.0
 11
173.9173990517854
 21
42.55218711197375
 31
0.0
  0
LINE
  5
24E
330
75
100
AcDbEntity
  8
TEXT
100
AcDbLine
 10
173.9173990517854
 20
42.55218711197375
 30
0.0
 11
176.6084498941897
 21
42.55218711197375
 31
0.0
  0
LINE
  5
24F
330
75
100
AcDbEntity
  8
TEXT
100
AcDbLine
 10
176.6084498941897
 20
42.55218711197375
 30
0.0
 11
178.1154383659362
 21
42.65982914566992
 31
0.0
  0
LINE
  5
250
330
75
100
AcDbEntity
  8
TEXT
100
AcDbLine
 10
178.1154383659362
 20
42.65982914566992
 30
0.0
 11
179.1918587028979
 21
42.87511321306229
 31
0.0
  0
LINE
  5
251
330
75
100
AcDbEntity
  8
TEXT
100
AcDbLine
 10
179.1918587028979
 20
42.87511321306229
 30
0.0
 11
180.0529949724673
 21
43.41332338154315
 31
0.0
  0
LINE
  5
252
330
75
100
AcDbEntity
  8
TEXT
100
AcDbLine
 10
180.0529949724673
 20
43.41332338154315
 30
0.0
 11
180.5912051409482
 21
43.95153355002403
 31
0.0
  0
LINE
  5
253
330
75
100
AcDbEntity
  8
TEXT
100
AcDbLine
 10
180.5912051409482
 20
43.95153355002403
 30
0.0
 11
180.6988471746444
 21
44.4897437185049
 31
0.0
  0
LINE
  5
254
330
75
100
AcDbEntity
  8
TEXT
100
AcDbLine
 10
180.6988471746444
 20
44.4897437185049
 30
0.0
 11
180.8064892083406
 21
45.35087998807429
 31
0.0
  0
LINE
  5
255
330
75
100
AcDbEntity
  8
TEXT
100
AcDbLine
 10
180.8064892083406
 20
45.35087998807429
 30
0.0
 11
181.0217732757329
 21
46.42730032503604
 31
0.0
  0
LINE
  5
256
330
75
100
AcDbEntity
  8
TEXT
100
AcDbLine
 10
181.0217732757329
 20
46.42730032503604
 30
0.0
 11
181.0217732757329
 21
47.82664676308631
 31
0.0
  0
LINE
  5
257
330
75
100
AcDbEntity
  8
TEXT
100
AcDbLine
 10
181.0217732757329
 20
47.82664676308631
 30
0.0
 11
181.1294153094291
 21
49.54891930222511
 31
0.0
  0
LINE
  5
258
330
75
100
AcDbEntity
  8
TEXT
100
AcDbLine
 10
181.1294153094291
 20
49.54891930222511
 30
0.0
 11
181.2370573431253
 21
51.59411794245243
 31
0.0
  0
LINE
  5
259
330
75
100
AcDbEntity
  8
TEXT
100
AcDbLine
 10
181.2370573431253
 20
51.59411794245243
 30
0.0
 11
181.2370573431253
 21
90.77581820785999
 31
0.0
  0
ENDSEC
  0
SECTION
  2
OBJECTS
  0
DICTIONARY
  5
C
330
0
100
AcDbDictionary
281
     1
  3
ACAD_COLOR
350
6B
  3
ACAD_GROUP
350
D
  3
ACAD_LAYOUT
350
6A
  3
ACAD_MATERIAL
350
10
  3
ACAD_MLEADERSTYLE
350
6E
  3
ACAD_MLINESTYLE
350
67
  3
ACAD_PLOTSETTINGS
350
69
  3
ACAD_PLOTSTYLENAME
350
E
  3
ACAD_SCALELIST
350
3A
  3
ACAD_TABLESTYLE
350
6C
  3
ACAD_VISUALSTYLE
350
29
  3
ACDB_RECOMPOSE_DATA
350
268
  3
AcDbVariableDictionary
350
25A
  0
DICTIONARY
  5
6B
102
{ACAD_REACTORS
330
C
102
}
330
C
100
AcDbDictionary
281
     1
  0
DICTIONARY
  5
D
102
{ACAD_REACTORS
330
C
102
}
330
C
100
AcDbDictionary
281
     1
  0
DICTIONARY
  5
6A
102
{ACAD_REACTORS
330
C
102
}
330
C
100
AcDbDictionary
281
     1
  3
Layout1
350
74
  3
Layout2
350
7C
  3
Model
350
78
  0
DICTIONARY
  5
10
102
{ACAD_REACTORS
330
C
102
}
330
C
100
AcDbDictionary
281
     1
  3
ByBlock
350
19
  3
ByLayer
350
11
  3
Global
350
21
  0
DICTIONARY
  5
6E
102
{ACAD_REACTORS
330
C
102
}
330
C
100
AcDbDictionary
281
     1
  3
Standard
350
6F
  0
DICTIONARY
  5
67
102
{ACAD_REACTORS
330
C
102
}
330
C
100
AcDbDictionary
281
     1
  3
Standard
350
68
  0
DICTIONARY
  5
69
102
{ACAD_REACTORS
330
C
102
}
330
C
100
AcDbDictionary
281
     1
  0
ACDBDICTIONARYWDFLT
  5
E
102
{ACAD_REACTORS
330
C
102
}
330
C
100
AcDbDictionary
281
     1
  3
Normal
350
F
100
AcDbDictionaryWithDefault
340
F
  0
DICTIONARY
  5
3A
102
{ACAD_REACTORS
330
C
102
}
330
C
100
AcDbDictionary
281
     1
  3
A0
350
3B
  3
A1
350
3C
  3
A2
350
3D
  3
A3
350
3E
  3
A4
350
3F
  3
A5
350
40
  3
A6
350
41
  3
A7
350
42
  3
A8
350
43
  3
A9
350
44
  3
B0
350
45
  3
B1
350
46
  3
B2
350
47
  3
B3
350
48
  3
B4
350
49
  3
B5
350
4A
  3
B6
350
4B
  3
B7
350
4C
  3
B8
350
4D
  3
B9
350
4E
  3
C0
350
4F
  3
C1
350
50
  3
C2
350
51
  3
C3
350
52
  3
C4
350
53
  3
C5
350
54
  3
C6
350
55
  3
C7
350
56
  3
C8
350
57
  3
C9
350
58
  3
D0
350
59
  3
D1
350
5A
  3
D2
350
5B
  0
DICTIONARY
  5
6C
102
{ACAD_REACTORS
330
C
102
}
330
C
100
AcDbDictionary
281
     1
  3
Standard
350
6D
  0
DICTIONARY
  5
29
102
{ACAD_REACTORS
330
C
102
}
330
C
100
AcDbDictionary
281
     1
  3
2dWireframe
350
2F
  3
3D Hidden
350
31
  3
3dWireframe
350
30
  3
Basic
350
2E
  3
Brighten
350
35
  3
ColorChange
350
39
  3
Conceptual
350
32
  3
Dim
350
34
  3
Facepattern
350
38
  3
Flat
350
2A
  3
FlatWithEdges
350
2B
  3
Gouraud
350
2C
  3
GouraudWithEdges
350
2D
  3
Linepattern
350
37
  3
Realistic
350
33
  3
Thicken
350
36
  0
XRECORD
  5
268
102
{ACAD_REACTORS
330
C
102
}
330
C
100
AcDbXrecord
280
     1
 90
        1
330
6D
  0
DICTIONARY
  5
25A
102
{ACAD_REACTORS
330
C
102
}
330
C
100
AcDbDictionary
281
     1
  3
CANNOSCALE
350
25E
  3
CMLEADERSTYLE
350
25C
  3
CTABLESTYLE
350
25B
  3
DIMASSOC
350
265
  3
HIDETEXT
350
264
  3
INDEXCTL
350
263
  3
LAYEREVAL
350
260
  3
LAYERNOTIFY
350
261
  3
LIGHTINGUNITS
350
25F
  3
MSLTSCALE
350
25D
  3
SORTENTS
350
262
  0
LAYOUT
  5
74
102
{ACAD_XDICTIONARY
360
26D
102
}
102
{ACAD_REACTORS
330
6A
102
}
330
6A
100
AcDbPlotSettings
  1

  2

  4

  6

 40
0.0
 41
0.0
 42
0.0
 43
0.0
 44
0.0
 45
0.0
 46
0.0
 47
0.0
 48
0.0
 49
0.0
140
0.0
141
0.0
142
1.0
143
1.0
 70
   688
 72
     0
 73
     0
 74
     5
  7

 75
    16
147
1.0
148
0.0
149
0.0
100
AcDbLayout
  1
Layout1
 70
     1
 71
     1
 10
0.0
 20
0.0
 11
12.0
 21
9.0
 12
0.0
 22
0.0
 32
0.0
 14
0.0
 24
0.0
 34
0.0
 15
0.0
 25
0.0
 35
0.0
146
0.0
 13
0.0
 23
0.0
 33
0.0
 16
1.0
 26
0.0
 36
0.0
 17
0.0
 27
1.0
 37
0.0
 76
     0
330
71
  0
LAYOUT
  5
7C
102
{ACAD_XDICTIONARY
360
271
102
}
102
{ACAD_REACTORS
330
6A
102
}
330
6A
100
AcDbPlotSettings
  1

  2

  4

  6

 40
0.0
 41
0.0
 42
0.0
 43
0.0
 44
0.0
 45
0.0
 46
0.0
 47
0.0
 48
0.0
 49
0.0
140
0.0
141
0.0
142
1.0
143
1.0
 70
   688
 72
     0
 73
     0
 74
     5
  7

 75
    16
147
1.0
148
0.0
149
0.0
100
AcDbLayout
  1
Layout2
 70
     1
 71
     2
 10
0.0
 20
0.0
 11
12.0
 21
9.0
 12
0.0
 22
0.0
 32
0.0
 14
0.0
 24
0.0
 34
0.0
 15
0.0
 25
0.0
 35
0.0
146
0.0
 13
0.0
 23
0.0
 33
0.0
 16
1.0
 26
0.0
 36
0.0
 17
0.0
 27
1.0
 37
0.0
 76
     0
330
79
  0
LAYOUT
  5
78
102
{ACAD_XDICTIONARY
360
26F
102
}
102
{ACAD_REACTORS
330
6A
102
}
330
6A
100
AcDbPlotSettings
  1

  2

  4

  6

 40
0.0
 41
0.0
 42
0.0
 43
0.0
 44
0.0
 45
0.0
 46
0.0
 47
0.0
 48
0.0
 49
0.0
140
0.0
141
0.0
142
1.0
143
1.0
 70
  1712
 72
     0
 73
     0
 74
     0
  7

 75
     0
147
1.0
148
0.0
149
0.0
100
AcDbLayout
  1
Model
 70
     1
 71
     0
 10
0.0
 20
0.0
 11
12.0
 21
9.0
 12
0.0
 22
0.0
 32
0.0
 14
0.0
 24
0.0
 34
0.0
 15
0.0
 25
0.0
 35
0.0
146
0.0
 13
0.0
 23
0.0
 33
0.0
 16
1.0
 26
0.0
 36
0.0
 17
0.0
 27
1.0
 37
0.0
 76
     0
330
75
  0
MATERIAL
  5
19
102
{ACAD_XDICTIONARY
360
1A
102
}
102
{ACAD_REACTORS
330
10
102
}
330
10
100
AcDbMaterial
  1
ByBlock
 72
     0
 43
0.0208333333333333
 43
0.0
 43
0.0
 43
0.0
 43
0.0
 43
0.0208333333333333
 43
0.0
 43
0.0
 43
0.0
 43
0.0
 43
1.0
 43
0.0
 43
0.0
 43
0.0
 43
0.0
 43
1.0
 77
     0
 47
0.0208333333333333
 47
0.0
 47
0.0
 47
0.0
 47
0.0
 47
0.0208333333333333
 47
0.0
 47
0.0
 47
0.0
 47
0.0
 47
1.0
 47
0.0
 47
0.0
 47
0.0
 47
0.0
 47
1.0
171
     0
 49
0.0208333333333333
 49
0.0
 49
0.0
 49
0.0
 49
0.0
 49
0.0208333333333333
 49
0.0
 49
0.0
 49
0.0
 49
0.0
 49
1.0
 49
0.0
 49
0.0
 49
0.0
 49
0.0
 49
1.0
175
     0
142
0.0208333333333333
142
0.0
142
0.0
142
0.0
142
0.0
142
0.0208333333333333
142
0.0
142
0.0
142
0.0
142
0.0
142
1.0
142
0.0
142
0.0
142
0.0
142
0.0
142
1.0
179
     0
144
0.0208333333333333
144
0.0
144
0.0
144
0.0
144
0.0
144
0.0208333333333333
144
0.0
144
0.0
144
0.0
144
0.0
144
1.0
144
0.0
144
0.0
144
0.0
144
0.0
144
1.0
147
0.0208333333333333
147
0.0
147
0.0
147
0.0
147
0.0
147
0.0208333333333333
147
0.0
147
0.0
147
0.0
147
0.0
147
1.0
147
0.0
147
0.0
147
0.0
147
0.0
147
1.0
  0
MATERIAL
  5
11
102
{ACAD_XDICTIONARY
360
12
102
}
102
{ACAD_REACTORS
330
10
102
}
330
10
100
AcDbMaterial
  1
ByLayer
 72
     0
 43
0.0208333333333333
 43
0.0
 43
0.0
 43
0.0
 43
0.0
 43
0.0208333333333333
 43
0.0
 43
0.0
 43
0.0
 43
0.0
 43
1.0
 43
0.0
 43
0.0
 43
0.0
 43
0.0
 43
1.0
 77
     0
 47
0.0208333333333333
 47
0.0
 47
0.0
 47
0.0
 47
0.0
 47
0.0208333333333333
 47
0.0
 47
0.0
 47
0.0
 47
0.0
 47
1.0
 47
0.0
 47
0.0
 47
0.0
 47
0.0
 47
1.0
171
     0
 49
0.0208333333333333
 49
0.0
 49
0.0
 49
0.0
 49
0.0
 49
0.0208333333333333
 49
0.0
 49
0.0
 49
0.0
 49
0.0
 49
1.0
 49
0.0
 49
0.0
 49
0.0
 49
0.0
 49
1.0
175
     0
142
0.0208333333333333
142
0.0
142
0.0
142
0.0
142
0.0
142
0.0208333333333333
142
0.0
142
0.0
142
0.0
142
0.0
142
1.0
142
0.0
142
0.0
142
0.0
142
0.0
142
1.0
179
     0
144
0.0208333333333333
144
0.0
144
0.0
144
0.0
144
0.0
144
0.0208333333333333
144
0.0
144
0.0
144
0.0
144
0.0
144
1.0
144
0.0
144
0.0
144
0.0
144
0.0
144
1.0
147
0.0208333333333333
147
0.0
147
0.0
147
0.0
147
0.0
147
0.0208333333333333
147
0.0
147
0.0
147
0.0
147
0.0
147
1.0
147
0.0
147
0.0
147
0.0
147
0.0
147
1.0
  0
MATERIAL
  5
21
102
{ACAD_XDICTIONARY
360
22
102
}
102
{ACAD_REACTORS
330
10
102
}
330
10
100
AcDbMaterial
  1
Global
 72
     0
 43
0.0208333333333333
 43
0.0
 43
0.0
 43
0.0
 43
0.0
 43
0.0208333333333333
 43
0.0
 43
0.0
 43
0.0
 43
0.0
 43
1.0
 43
0.0
 43
0.0
 43
0.0
 43
0.0
 43
1.0
 77
     0
 47
0.0208333333333333
 47
0.0
 47
0.0
 47
0.0
 47
0.0
 47
0.0208333333333333
 47
0.0
 47
0.0
 47
0.0
 47
0.0
 47
1.0
 47
0.0
 47
0.0
 47
0.0
 47
0.0
 47
1.0
171
     0
 49
0.0208333333333333
 49
0.0
 49
0.0
 49
0.0
 49
0.0
 49
0.0208333333333333
 49
0.0
 49
0.0
 49
0.0
 49
0.0
 49
1.0
 49
0.0
 49
0.0
 49
0.0
 49
0.0
 49
1.0
175
     0
142
0.0208333333333333
142
0.0
142
0.0
142
0.0
142
0.0
142
0.0208333333333333
142
0.0
142
0.0
142
0.0
142
0.0
142
1.0
142
0.0
142
0.0
142
0.0
142
0.0
142
1.0
179
     0
144
0.0208333333333333
144
0.0
144
0.0
144
0.0
144
0.0
144
0.0208333333333333
144
0.0
144
0.0
144
0.0
144
0.0
144
1.0
144
0.0
144
0.0
144
0.0
144
0.0
144
1.0
147
0.0208333333333333
147
0.0
147
0.0
147
0.0
147
0.0
147
0.0208333333333333
147
0.0
147
0.0
147
0.0
147
0.0
147
1.0
147
0.0
147
0.0
147
0.0
147
0.0
147
1.0
  0
MLEADERSTYLE
  5
6F
102
{ACAD_REACTORS
330
6E
102
}
330
6E
100
AcDbMLeaderStyle
170
     2
171
     1
172
     0
 90
        2
 40
0.0
 41
0.0
173
     1
 91
-1056964608
340
63
 92
       -2
290
     1
 42
0.09
291
     1
 43
0.36
  3
Standard
 44
0.18
300

342
5D
174
     1
178
     6
175
     1
176
     0
 93
-1056964608
 45
0.18
292
     0
297
     0
 46
0.18
 94
-1056964608
 47
1.0
 49
1.0
140
1.0
293
     1
141
0.0
294
     1
177
     0
142
1.0
295
     0
296
     0
143
0.125
1001
ACAD_MLEADERVER
1070
     2
  0
MLINESTYLE
  5
68
102
{ACAD_REACTORS
330
67
102
}
330
67
100
AcDbMlineStyle
  2
STANDARD
 70
     0
  3

 62
   256
 51
90.0
 52
90.0
 71
     2
 49
0.5
 62
   256
  6
BYLAYER
 49
-0.5
 62
   256
  6
BYLAYER
  0
ACDBPLACEHOLDER
  5
F
102
{ACAD_REACTORS
330
E
102
}
330
E
  0
SCALE
  5
3B
102
{ACAD_REACTORS
330
3A
102
}
330
3A
100
AcDbScale
 70
     0
300
1:1
140
1.0
141
1.0
290
     1
  0
SCALE
  5
3C
102
{ACAD_REACTORS
330
3A
102
}
330
3A
100
AcDbScale
 70
     0
300
1:2
140
1.0
141
2.0
290
     0
  0
SCALE
  5
3D
102
{ACAD_REACTORS
330
3A
102
}
330
3A
100
AcDbScale
 70
     0
300
1:4
140
1.0
141
4.0
290
     0
  0
SCALE
  5
3E
102
{ACAD_REACTORS
330
3A
102
}
330
3A
100
AcDbScale
 70
     0
300
1:5
140
1.0
141
5.0
290
     0
  0
SCALE
  5
3F
102
{ACAD_REACTORS
330
3A
102
}
330
3A
100
AcDbScale
 70
     0
300
1:8
140
1.0
141
8.0
290
     0
  0
SCALE
  5
40
102
{ACAD_REACTORS
330
3A
102
}
330
3A
100
AcDbScale
 70
     0
300
1:10
140
1.0
141
10.0
290
     0
  0
SCALE
  5
41
102
{ACAD_REACTORS
330
3A
102
}
330
3A
100
AcDbScale
 70
     0
300
1:16
140
1.0
141
16.0
290
     0
  0
SCALE
  5
42
102
{ACAD_REACTORS
330
3A
102
}
330
3A
100
AcDbScale
 70
     0
300
1:20
140
1.0
141
20.0
290
     0
  0
SCALE
  5
43
102
{ACAD_REACTORS
330
3A
102
}
330
3A
100
AcDbScale
 70
     0
300
1:30
140
1.0
141
30.0
290
     0
  0
SCALE
  5
44
102
{ACAD_REACTORS
330
3A
102
}
330
3A
100
AcDbScale
 70
     0
300
1:40
140
1.0
141
40.0
290
     0
  0
SCALE
  5
45
102
{ACAD_REACTORS
330
3A
102
}
330
3A
100
AcDbScale
 70
     0
300
1:50
140
1.0
141
50.0
290
     0
  0
SCALE
  5
46
102
{ACAD_REACTORS
330
3A
102
}
330
3A
100
AcDbScale
 70
     0
300
1:100
140
1.0
141
100.0
290
     0
  0
SCALE
  5
47
102
{ACAD_REACTORS
330
3A
102
}
330
3A
100
AcDbScale
 70
     0
300
2:1
140
2.0
141
1.0
290
     0
  0
SCALE
  5
48
102
{ACAD_REACTORS
330
3A
102
}
330
3A
100
AcDbScale
 70
     0
300
4:1
140
4.0
141
1.0
290
     0
  0
SCALE
  5
49
102
{ACAD_REACTORS
330
3A
102
}
330
3A
100
AcDbScale
 70
     0
300
8:1
140
8.0
141
1.0
290
     0
  0
SCALE
  5
4A
102
{ACAD_REACTORS
330
3A
102
}
330
3A
100
AcDbScale
 70
     0
300
10:1
140
10.0
141
1.0
290
     0
  0
SCALE
  5
4B
102
{ACAD_REACTORS
330
3A
102
}
330
3A
100
AcDbScale
 70
     0
300
100:1
140
100.0
141
1.0
290
     0
  0
SCALE
  5
4C
102
{ACAD_REACTORS
330
3A
102
}
330
3A
100
AcDbScale
 70
     0
300
1/128" = 1'-0"
140
0.0078125
141
12.0
290
     0
  0
SCALE
  5
4D
102
{ACAD_REACTORS
330
3A
102
}
330
3A
100
AcDbScale
 70
     0
300
1/64" = 1'-0"
140
0.015625
141
12.0
290
     0
  0
SCALE
  5
4E
102
{ACAD_REACTORS
330
3A
102
}
330
3A
100
AcDbScale
 70
     0
300
1/32" = 1'-0"
140
0.03125
141
12.0
290
     0
  0
SCALE
  5
4F
102
{ACAD_REACTORS
330
3A
102
}
330
3A
100
AcDbScale
 70
     0
300
1/16" = 1'-0"
140
0.0625
141
12.0
290
     0
  0
SCALE
  5
50
102
{ACAD_REACTORS
330
3A
102
}
330
3A
100
AcDbScale
 70
     0
300
3/32" = 1'-0"
140
0.09375
141
12.0
290
     0
  0
SCALE
  5
51
102
{ACAD_REACTORS
330
3A
102
}
330
3A
100
AcDbScale
 70
     0
300
1/8" = 1'-0"
140
0.125
141
12.0
290
     0
  0
SCALE
  5
52
102
{ACAD_REACTORS
330
3A
102
}
330
3A
100
AcDbScale
 70
     0
300
3/16" = 1'-0"
140
0.1875
141
12.0
290
     0
  0
SCALE
  5
53
102
{ACAD_REACTORS
330
3A
102
}
330
3A
100
AcDbScale
 70
     0
300
1/4" = 1'-0"
140
0.25
141
12.0
290
     0
  0
SCALE
  5
54
102
{ACAD_REACTORS
330
3A
102
}
330
3A
100
AcDbScale
 70
     0
300
3/8" = 1'-0"
140
0.375
141
12.0
290
     0
  0
SCALE
  5
55
102
{ACAD_REACTORS
330
3A
102
}
330
3A
100
AcDbScale
 70
     0
300
1/2" = 1'-0"
140
0.5
141
12.0
290
     0
  0
SCALE
  5
56
102
{ACAD_REACTORS
330
3A
102
}
330
3A
100
AcDbScale
 70
     0
300
3/4" = 1'-0"
140
0.75
141
12.0
290
     0
  0
SCALE
  5
57
102
{ACAD_REACTORS
330
3A
102
}
330
3A
100
AcDbScale
 70
     0
300
1" = 1'-0"
140
1.0
141
12.0
290
     0
  0
SCALE
  5
58
102
{ACAD_REACTORS
330
3A
102
}
330
3A
100
AcDbScale
 70
     0
300
1-1/2" = 1'-0"
140
1.5
141
12.0
290
     0
  0
SCALE
  5
59
102
{ACAD_REACTORS
330
3A
102
}
330
3A
100
AcDbScale
 70
     0
300
3" = 1'-0"
140
3.0
141
12.0
290
     0
  0
SCALE
  5
5A
102
{ACAD_REACTORS
330
3A
102
}
330
3A
100
AcDbScale
 70
     0
300
6" = 1'-0"
140
6.0
141
12.0
290
     0
  0
SCALE
  5
5B
102
{ACAD_REACTORS
330
3A
102
}
330
3A
100
AcDbScale
 70
     0
300
1'-0" = 1'-0"
140
12.0
141
12.0
290
     0
  0
TABLESTYLE
  5
6D
102
{ACAD_XDICTIONARY
360
266
102
}
102
{ACAD_REACTORS
330
6C
102
}
330
6C
100
AcDbTableStyle
  3
Standard
 70
     0
 71
     0
 40
0.06
 41
0.06
280
     0
281
     0
  7
Standard
140
0.18
170
     2
 62
     0
 63
     7
283
     0
274
    -2
284
     1
 64
     0
275
    -2
285
     1
 65
     0
276
    -2
286
     1
 66
     0
277
    -2
287
     1
 67
     0
278
    -2
288
     1
 68
     0
279
    -2
289
     1
 69
     0
  7
Standard
140
0.25
170
     5
 62
     0
 63
     7
283
     0
274
    -2
284
     1
 64
     0
275
    -2
285
     1
 65
     0
276
    -2
286
     1
 66
     0
277
    -2
287
     1
 67
     0
278
    -2
288
     1
 68
     0
279
    -2
289
     1
 69
     0
  7
Standard
140
0.18
170
     5
 62
     0
 63
     7
283
     0
274
    -2
284
     1
 64
     0
275
    -2
285
     1
 65
     0
276
    -2
286
     1
 66
     0
277
    -2
287
     1
 67
     0
278
    -2
288
     1
 68
     0
279
    -2
289
     1
 69
     0
  0
VISUALSTYLE
  5
2F
102
{ACAD_REACTORS
330
29
102
}
330
29
100
AcDbVisualStyle
  2
2dWireframe
 70
     4
 71
     0
 72
     2
 73
     0
 90
        0
 40
-0.6
 41
-30.0
 62
     5
 63
     7
 74
     1
 91
        4
 64
     7
 65
   257
 75
     1
175
     1
 42
1.0
 92
        0
 66
   257
 43
1.0
 76
     1
 77
     6
 78
     2
 67
     7
 79
     5
170
     0
171
     0
290
     0
174
     0
 93
        1
 44
0.0
173
     0
291
     0
 45
0.0
1001
ACAD
1000
AcDbSavedByObjectVersion
1070
     0
  0
VISUALSTYLE
  5
31
102
{ACAD_REACTORS
330
29
102
}
330
29
100
AcDbVisualStyle
  2
3D Hidden
 70
     6
 71
     1
 72
     2
 73
     2
 90
        0
 40
-0.6
 41
-30.0
 62
     5
 63
     7
 74
     2
 91
        2
 64
     7
 65
   257
 75
     2
175
     1
 42
40.0
 92
        0
 66
   257
 43
1.0
 76
     1
 77
     6
 78
     2
 67
     7
 79
     3
170
     0
171
     0
290
     0
174
     0
 93
        1
 44
0.0
173
     0
291
     0
 45
0.0
1001
ACAD
1000
AcDbSavedByObjectVersion
1070
     0
  0
VISUALSTYLE
  5
30
102
{ACAD_REACTORS
330
29
102
}
330
29
100
AcDbVisualStyle
  2
3dWireframe
 70
     5
 71
     0
 72
     2
 73
     0
 90
        0
 40
-0.6
 41
-30.0
 62
     5
 63
     7
 74
     1
 91
        4
 64
     7
 65
   257
 75
     1
175
     1
 42
1.0
 92
        0
 66
   257
 43
1.0
 76
     1
 77
     6
 78
     2
 67
     7
 79
     5
170
     0
171
     0
290
     0
174
     0
 93
        1
 44
0.0
173
     0
291
     0
 45
0.0
1001
ACAD
1000
AcDbSavedByObjectVersion
1070
     0
  0
VISUALSTYLE
  5
2E
102
{ACAD_REACTORS
330
29
102
}
330
29
100
AcDbVisualStyle
  2
Basic
 70
     7
 71
     1
 72
     0
 73
     1
 90
        0
 40
-0.6
 41
-30.0
 62
     5
 63
     7
 74
     0
 91
        4
 64
     7
 65
   257
 75
     1
175
     1
 42
1.0
 92
        8
 66
     7
 43
1.0
 76
     1
 77
     6
 78
     2
 67
     7
 79
     5
170
     0
171
     0
290
     0
174
     0
 93
        1
 44
0.0
173
     0
291
     1
 45
0.0
1001
ACAD
1000
AcDbSavedByObjectVersion
1070
     0
  0
VISUALSTYLE
  5
35
102
{ACAD_REACTORS
330
29
102
}
330
29
100
AcDbVisualStyle
  2
Brighten
 70
    12
 71
     2
 72
     2
 73
     0
 90
        0
 40
-0.6
 41
-30.0
 62
     5
 63
     7
 74
     1
 91
        4
 64
     7
 65
   257
 75
     1
175
     1
 42
1.0
 92
        8
 66
     7
 43
1.0
 76
     1
 77
     6
 78
     2
 67
     7
 79
     5
170
     0
171
     0
290
     0
174
     0
 93
        1
 44
50.0
173
     0
291
     1
 45
0.0
1001
ACAD
1000
AcDbSavedByObjectVersion
1070
     0
  0
VISUALSTYLE
  5
39
102
{ACAD_REACTORS
330
29
102
}
330
29
100
AcDbVisualStyle
  2
ColorChange
 70
    16
 71
     2
 72
     2
 73
     3
 90
        0
 40
-0.6
 41
-30.0
 62
     5
 63
     8
 74
     1
 91
        4
 64
     7
 65
   257
 75
     1
175
     1
 42
1.0
 92
        8
 66
     8
 43
1.0
 76
     1
 77
     6
 78
     2
 67
     7
 79
     5
170
     0
171
     0
290
     0
174
     0
 93
        1
 44
0.0
173
     0
291
     1
 45
0.0
1001
ACAD
1000
AcDbSavedByObjectVersion
1070
     0
  0
VISUALSTYLE
  5
32
102
{ACAD_REACTORS
330
29
102
}
330
29
100
AcDbVisualStyle
  2
Conceptual
 70
     9
 71
     3
 72
     2
 73
     0
 90
        0
 40
-0.6
 41
-30.0
 62
     5
 63
     7
 74
     2
 91
        2
 64
     7
 65
   257
 75
     1
175
     1
 42
40.0
 92
        8
 66
     7
 43
1.0
 76
     1
 77
     6
 78
     2
 67
     7
 79
     3
170
     0
171
     0
290
     0
174
     0
 93
        1
 44
0.0
173
     0
291
     0
 45
0.0
1001
ACAD
1000
AcDbSavedByObjectVersion
1070
     0
  0
VISUALSTYLE
  5
34
102
{ACAD_REACTORS
330
29
102
}
330
29
100
AcDbVisualStyle
  2
Dim
 70
    11
 71
     2
 72
     2
 73
     0
 90
        0
 40
-0.6
 41
-30.0
 62
     5
 63
     7
 74
     1
 91
        4
 64
     7
 65
   257
 75
     1
175
     1
 42
1.0
 92
        8
 66
     7
 43
1.0
 76
     1
 77
     6
 78
     2
 67
     7
 79
     5
170
     0
171
     0
290
     0
174
     0
 93
        1
 44
-50.0
173
     0
291
     1
 45
0.0
1001
ACAD
1000
AcDbSavedByObjectVersion
1070
     0
  0
VISUALSTYLE
  5
38
102
{ACAD_REACTORS
330
29
102
}
330
29
100
AcDbVisualStyle
  2
Facepattern
 70
    15
 71
     2
 72
     2
 73
     0
 90
        0
 40
-0.6
 41
-30.0
 62
     5
 63
     7
 74
     1
 91
        4
 64
     7
 65
   257
 75
     1
175
     1
 42
1.0
 92
        8
 66
     7
 43
1.0
 76
     1
 77
     6
 78
     2
 67
     7
 79
     5
170
     0
171
     0
290
     0
174
     0
 93
        1
 44
0.0
173
     0
291
     1
 45
0.0
1001
ACAD
1000
AcDbSavedByObjectVersion
1070
     0
  0
VISUALSTYLE
  5
2A
102
{ACAD_REACTORS
330
29
102
}
330
29
100
AcDbVisualStyle
  2
Flat
 70
     0
 71
     2
 72
     1
 73
     1
 90
        2
 40
-0.6
 41
30.0
 62
     5
 63
     7
 74
     0
 91
        4
 64
     7
 65
   257
 75
     1
175
     1
 42
1.0
 92
        8
 66
     7
 43
1.0
 76
     1
 77
     6
 78
     2
 67
     7
 79
     5
170
     0
171
     0
290
     0
174
     0
 93
       13
 44
0.0
173
     0
291
     1
 45
0.0
1001
ACAD
1000
AcDbSavedByObjectVersion
1070
     0
  0
VISUALSTYLE
  5
2B
102
{ACAD_REACTORS
330
29
102
}
330
29
100
AcDbVisualStyle
  2
FlatWithEdges
 70
     1
 71
     2
 72
     1
 73
     1
 90
        2
 40
-0.6
 41
30.0
 62
     5
 63
     7
 74
     1
 91
        4
 64
     7
 65
   257
 75
     1
175
     1
 42
1.0
 92
        0
 66
   257
 43
1.0
 76
     1
 77
     6
 78
     2
 67
     7
 79
     5
170
     0
171
     0
290
     0
174
     0
 93
       13
 44
0.0
173
     0
291
     1
 45
0.0
1001
ACAD
1000
AcDbSavedByObjectVersion
1070
     0
  0
VISUALSTYLE
  5
2C
102
{ACAD_REACTORS
330
29
102
}
330
29
100
AcDbVisualStyle
  2
Gouraud
 70
     2
 71
     2
 72
     2
 73
     1
 90
        2
 40
-0.6
 41
30.0
 62
     5
 63
     7
 74
     0
 91
        4
 64
     7
 65
   257
 75
     1
175
     1
 42
1.0
 92
        0
 66
     7
 43
1.0
 76
     1
 77
     6
 78
     2
 67
     7
 79
     5
170
     0
171
     0
290
     0
174
     0
 93
       13
 44
0.0
173
     0
291
     1
 45
0.0
1001
ACAD
1000
AcDbSavedByObjectVersion
1070
     0
  0
VISUALSTYLE
  5
2D
102
{ACAD_REACTORS
330
29
102
}
330
29
100
AcDbVisualStyle
  2
GouraudWithEdges
 70
     3
 71
     2
 72
     2
 73
     1
 90
        2
 40
-0.6
 41
30.0
 62
     5
 63
     7
 74
     1
 91
        4
 64
     7
 65
   257
 75
     1
175
     1
 42
1.0
 92
        0
 66
   257
 43
1.0
 76
     1
 77
     6
 78
     2
 67
     7
 79
     5
170
     0
171
     0
290
     0
174
     0
 93
       13
 44
0.0
173
     0
291
     1
 45
0.0
1001
ACAD
1000
AcDbSavedByObjectVersion
1070
     0
  0
VISUALSTYLE
  5
37
102
{ACAD_REACTORS
330
29
102
}
330
29
100
AcDbVisualStyle
  2
Linepattern
 70
    14
 71
     2
 72
     2
 73
     0
 90
        0
 40
-0.6
 41
-30.0
 62
     5
 63
     7
 74
     1
 91
        4
 64
     7
 65
   257
 75
     7
175
     7
 42
1.0
 92
        8
 66
     7
 43
1.0
 76
     1
 77
     6
 78
     2
 67
     7
 79
     5
170
     0
171
     0
290
     0
174
     0
 93
        1
 44
0.0
173
     0
291
     1
 45
0.0
1001
ACAD
1000
AcDbSavedByObjectVersion
1070
     0
  0
VISUALSTYLE
  5
33
102
{ACAD_REACTORS
330
29
102
}
330
29
100
AcDbVisualStyle
  2
Realistic
 70
     8
 71
     2
 72
     2
 73
     0
 90
        0
 40
-0.6
 41
-30.0
 62
     5
 63
     7
 74
     1
 91
        0
 64
     7
 65
   257
 75
     1
175
     1
 42
1.0
 92
        8
 66
     8
 43
1.0
 76
     1
 77
     6
 78
     2
 67
     7
 79
     5
170
     0
171
     0
290
     0
174
     0
 93
       13
 44
0.0
173
     0
291
     0
 45
0.0
1001
ACAD
1000
AcDbSavedByObjectVersion
1070
     0
  0
VISUALSTYLE
  5
36
102
{ACAD_REACTORS
330
29
102
}
330
29
100
AcDbVisualStyle
  2
Thicken
 70
    13
 71
     2
 72
     2
 73
     0
 90
        0
 40
-0.6
 41
-30.0
 62
     5
 63
     7
 74
     1
 91
        4
 64
     7
 65
   257
 75
     1
175
     1
 42
1.0
 92
       12
 66
     7
 43
1.0
 76
     1
 77
     6
 78
     2
 67
     7
 79
     5
170
     0
171
     0
290
     0
174
     0
 93
        1
 44
0.0
173
     0
291
     1
 45
0.0
1001
ACAD
1000
AcDbSavedByObjectVersion
1070
     0
  0
DICTIONARYVAR
  5
25E
102
{ACAD_REACTORS
330
25A
102
}
330
25A
100
DictionaryVariables
280
     0
  1
1:1
  0
DICTIONARYVAR
  5
25C
102
{ACAD_REACTORS
330
25A
102
}
330
25A
100
DictionaryVariables
280
     0
  1
STANDARD
  0
DICTIONARYVAR
  5
25B
102
{ACAD_REACTORS
330
25A
102
}
330
25A
100
DictionaryVariables
280
     0
  1
STANDARD
  0
DICTIONARYVAR
  5
265
102
{ACAD_REACTORS
330
25A
102
}
330
25A
100
DictionaryVariables
280
     0
  1
2
  0
DICTIONARYVAR
  5
264
102
{ACAD_REACTORS
330
25A
102
}
330
25A
100
DictionaryVariables
280
     0
  1
1
  0
DICTIONARYVAR
  5
263
102
{ACAD_REACTORS
330
25A
102
}
330
25A
100
DictionaryVariables
280
     0
  1
0
  0
DICTIONARYVAR
  5
260
102
{ACAD_REACTORS
330
25A
102
}
330
25A
100
DictionaryVariables
280
     0
  1
0
  0
DICTIONARYVAR
  5
261
102
{ACAD_REACTORS
330
25A
102
}
330
25A
100
DictionaryVariables
280
     0
  1
0
  0
DICTIONARYVAR
  5
25F
102
{ACAD_REACTORS
330
25A
102
}
330
25A
100
DictionaryVariables
280
     0
  1
2
  0
DICTIONARYVAR
  5
25D
102
{ACAD_REACTORS
330
25A
102
}
330
25A
100
DictionaryVariables
280
     0
  1
1
  0
DICTIONARYVAR
  5
262
102
{ACAD_REACTORS
330
25A
102
}
330
25A
100
DictionaryVariables
280
     0
  1
127
  0
DICTIONARY
  5
26D
330
74
100
AcDbDictionary
280
     1
281
     1
  3
ACAD_XREC_ROUNDTRIP
360
26E
  0
DICTIONARY
  5
271
330
7C
100
AcDbDictionary
280
     1
281
     1
  3
ACAD_XREC_ROUNDTRIP
360
272
  0
DICTIONARY
  5
26F
330
78
100
AcDbDictionary
280
     1
281
     1
  3
ACAD_XREC_ROUNDTRIP
360
270
  0
DICTIONARY
  5
1A
330
19
100
AcDbDictionary
280
     1
281
     1
  3
ACAD_XREC_ROUNDTRIP
360
26A
  3
BUMPTILE
360
1C
  3
DIFFUSETILE
360
1B
  3
OPACITYTILE
360
1F
  3
REFLECTIONTILE
360
1E
  3
REFRACTIONTILE
360
20
  3
SPECULARTILE
360
1D
  0
DICTIONARY
  5
12
330
11
100
AcDbDictionary
280
     1
281
     1
  3
ACAD_XREC_ROUNDTRIP
360
269
  3
BUMPTILE
360
14
  3
DIFFUSETILE
360
13
  3
OPACITYTILE
360
17
  3
REFLECTIONTILE
360
16
  3
REFRACTIONTILE
360
18
  3
SPECULARTILE
360
15
  0
DICTIONARY
  5
22
330
21
100
AcDbDictionary
280
     1
281
     1
  3
ACAD_XREC_ROUNDTRIP
360
26B
  3
BUMPTILE
360
24
  3
DIFFUSETILE
360
23
  3
OPACITYTILE
360
27
  3
REFLECTIONTILE
360
26
  3
REFRACTIONTILE
360
28
  3
SPECULARTILE
360
25
  0
DICTIONARY
  5
266
330
6D
100
AcDbDictionary
280
     1
281
     1
  3
ACAD_ROUNDTRIP_2008_TABLESTYLE_CELLSTYLEMAP
360
267
  3
ACAD_XREC_ROUNDTRIP
360
26C
  0
XRECORD
  5
26E
102
{ACAD_REACTORS
330
26D
102
}
330
26D
100
AcDbXrecord
280
     1
102
SHADEPLOT
 70
     0
102
SHADEPLOTRESLEVEL
 70
     2
102
SHADEPLOTCUSTOMDPI
 70
   300
  0
XRECORD
  5
272
102
{ACAD_REACTORS
330
271
102
}
330
271
100
AcDbXrecord
280
     1
102
SHADEPLOT
 70
     0
102
SHADEPLOTRESLEVEL
 70
     2
102
SHADEPLOTCUSTOMDPI
 70
   300
  0
XRECORD
  5
270
102
{ACAD_REACTORS
330
26F
102
}
330
26F
100
AcDbXrecord
280
     1
102
SHADEPLOT
 70
     0
102
SHADEPLOTRESLEVEL
 70
     2
102
SHADEPLOTCUSTOMDPI
 70
   300
  0
XRECORD
  5
26A
102
{ACAD_REACTORS
330
1A
102
}
330
1A
100
AcDbXrecord
280
     1
102
MATERIAL
148
0.0
149
0.0
149
0.0
 93
        0
 94
      127
282
     0
 72
     0
 77
     0
171
     0
175
     0
179
     0
273
     0
  0
XRECORD
  5
1C
102
{ACAD_REACTORS
330
1A
102
}
330
1A
100
AcDbXrecord
280
     1
270
     1
271
     1
  0
XRECORD
  5
1B
102
{ACAD_REACTORS
330
1A
102
}
330
1A
100
AcDbXrecord
280
     1
270
     1
271
     1
  0
XRECORD
  5
1F
102
{ACAD_REACTORS
330
1A
102
}
330
1A
100
AcDbXrecord
280
     1
270
     1
271
     1
  0
XRECORD
  5
1E
102
{ACAD_REACTORS
330
1A
102
}
330
1A
100
AcDbXrecord
280
     1
270
     1
271
     1
  0
XRECORD
  5
20
102
{ACAD_REACTORS
330
1A
102
}
330
1A
100
AcDbXrecord
280
     1
270
     1
271
     1
  0
XRECORD
  5
1D
102
{ACAD_REACTORS
330
1A
102
}
330
1A
100
AcDbXrecord
280
     1
270
     1
271
     1
  0
XRECORD
  5
269
102
{ACAD_REACTORS
330
12
102
}
330
12
100
AcDbXrecord
280
     1
102
MATERIAL
148
0.0
149
0.0
149
0.0
 93
        0
 94
      127
282
     0
 72
     0
 77
     0
171
     0
175
     0
179
     0
273
     0
  0
XRECORD
  5
14
102
{ACAD_REACTORS
330
12
102
}
330
12
100
AcDbXrecord
280
     1
270
     1
271
     1
  0
XRECORD
  5
13
102
{ACAD_REACTORS
330
12
102
}
330
12
100
AcDbXrecord
280
     1
270
     1
271
     1
  0
XRECORD
  5
17
102
{ACAD_REACTORS
330
12
102
}
330
12
100
AcDbXrecord
280
     1
270
     1
271
     1
  0
XRECORD
  5
16
102
{ACAD_REACTORS
330
12
102
}
330
12
100
AcDbXrecord
280
     1
270
     1
271
     1
  0
XRECORD
  5
18
102
{ACAD_REACTORS
330
12
102
}
330
12
100
AcDbXrecord
280
     1
270
     1
271
     1
  0
XRECORD
  5
15
102
{ACAD_REACTORS
330
12
102
}
330
12
100
AcDbXrecord
280
     1
270
     1
271
     1
  0
XRECORD
  5
26B
102
{ACAD_REACTORS
330
22
102
}
330
22
100
AcDbXrecord
280
     1
102
MATERIAL
148
0.0
149
0.0
149
0.0
 93
        0
 94
      127
282
     0
 72
     0
 77
     0
171
     0
175
     0
179
     0
273
     0
  0
XRECORD
  5
24
102
{ACAD_REACTORS
330
22
102
}
330
22
100
AcDbXrecord
280
     1
270
     1
271
     1
  0
XRECORD
  5
23
102
{ACAD_REACTORS
330
22
102
}
330
22
100
AcDbXrecord
280
     1
270
     1
271
     1
  0
XRECORD
  5
27
102
{ACAD_REACTORS
330
22
102
}
330
22
100
AcDbXrecord
280
     1
270
     1
271
     1
  0
XRECORD
  5
26
102
{ACAD_REACTORS
330
22
102
}
330
22
100
AcDbXrecord
280
     1
270
     1
271
     1
  0
XRECORD
  5
28
102
{ACAD_REACTORS
330
22
102
}
330
22
100
AcDbXrecord
280
     1
270
     1
271
     1
  0
XRECORD
  5
25
102
{ACAD_REACTORS
330
22
102
}
330
22
100
AcDbXrecord
280
     1
270
     1
271
     1
  0
CELLSTYLEMAP
  5
267
102
{ACAD_REACTORS
330
266
102
}
330
266
100
AcDbCellStyleMap
 90
        3
300
CELLSTYLE
  1
TABLEFORMAT_BEGIN
 90
        5
170
     1
 91
        0
 92
    32768
 62
   257
 93
        1
300
CONTENTFORMAT
  1
CONTENTFORMAT_BEGIN
 90
        0
 91
        0
 92
      512
 93
        0
300

 40
0.0
140
1.0
 94
        5
 62
     0
340
5D
144
0.25
309
CONTENTFORMAT_END
171
     0
 94
        0
309
TABLEFORMAT_END
  1
CELLSTYLE_BEGIN
 90
        1
 91
        1
300
_TITLE
309
CELLSTYLE_END
300
CELLSTYLE
  1
TABLEFORMAT_BEGIN
 90
        5
170
     1
 91
        0
 92
        0
 62
   257
 93
        1
300
CONTENTFORMAT
  1
CONTENTFORMAT_BEGIN
 90
        0
 91
        0
 92
      512
 93
        0
300

 40
0.0
140
1.0
 94
        5
 62
     0
340
5D
144
0.18
309
CONTENTFORMAT_END
171
     0
 94
        0
309
TABLEFORMAT_END
  1
CELLSTYLE_BEGIN
 90
        2
 91
        1
300
_HEADER
309
CELLSTYLE_END
300
CELLSTYLE
  1
TABLEFORMAT_BEGIN
 90
        5
170
     1
 91
        0
 92
        0
 62
   257
 93
        1
300
CONTENTFORMAT
  1
CONTENTFORMAT_BEGIN
 90
        0
 91
        0
 92
      512
 93
        0
300

 40
0.0
140
1.0
 94
        2
 62
     0
340
5D
144
0.18
309
CONTENTFORMAT_END
171
     0
 94
        0
309
TABLEFORMAT_END
  1
CELLSTYLE_BEGIN
 90
        3
 91
        2
300
_DATA
309
CELLSTYLE_END
  0
XRECORD
  5
26C
102
{ACAD_REACTORS
330
266
102
}
330
266
100
AcDbXrecord
280
     1
102
ACAD_ROUNDTRIP_PRE2007_TABLESTYLE
 90
      512
 91
        0
  1

 92
      512
 93
        0
  2

 94
      512
 95
        0
  3

  0
ENDSEC
  0
EOF
